  0
SECTION
  2
HEADER
  9
$ACADVER
  1
AC1009
  9
$INSBASE
 10
0.0
 20
0.0
 30
0.0
  9
$EXTMIN
 10
-14.34812
 20
-11.92691
 30
1.000000E+20
  9
$EXTMAX
 10
14.34808
 20
12.35155
 30
-1.000000E+20
  9
$LIMMIN
 10
0.0
 20
0.0
  9
$LIMMAX
 10
0.0
 20
0.0
  9
$ORTHOMODE
 70
     0
  9
$REGENMODE
 70
     1
  9
$FILLMODE
 70
     1
  9
$QTEXTMODE
 70
     0
  9
$MIRRTEXT
 70
     1
  9
$DRAGMODE
 70
     2
  9
$LTSCALE
 40
1.0
  9
$OSMODE
 70
     0
  9
$ATTMODE
 70
     1
  9
$TEXTSIZE
 40
0.2
  9
$TRACEWID
 40
0.05
  9
$TEXTSTYLE
  7
STANDARD
  9
$CLAYER
  8
0
  9
$CELTYPE
  6
CONTINUOUS
  9
$CECOLOR
 62
   256
  9
$DIMSCALE
 40
1.0
  9
$DIMASZ
 40
0.18
  9
$DIMEXO
 40
0.0625
  9
$DIMDLI
 40
0.38
  9
$DIMRND
 40
0.0
  9
$DIMDLE
 40
0.0
  9
$DIMEXE
 40
0.18
  9
$DIMTP
 40
0.0
  9
$DIMTM
 40
0.0
  9
$DIMTXT
 40
0.18
  9
$DIMCEN
 40
0.09
  9
$DIMTSZ
 40
0.0
  9
$DIMTOL
 70
     0
  9
$DIMLIM
 70
     0
  9
$DIMTIH
 70
     1
  9
$DIMTOH
 70
     1
  9
$DIMSE1
 70
     0
  9
$DIMSE2
 70
     0
  9
$DIMTAD
 70
     0
  9
$DIMZIN
 70
     0
  9
$DIMBLK
  1

  9
$DIMASO
 70
     1
  9
$DIMSHO
 70
     1
  9
$DIMPOST
  1

  9
$DIMAPOST
  1

  9
$DIMALT
 70
     0
  9
$DIMALTD
 70
     2
  9
$DIMALTF
 40
25.4
  9
$DIMLFAC
 40
1.0
  9
$DIMTOFL
 70
     0
  9
$DIMTVP
 40
0.0
  9
$DIMTIX
 70
     0
  9
$DIMSOXD
 70
     0
  9
$DIMSAH
 70
     0
  9
$DIMBLK1
  1

  9
$DIMBLK2
  1

  9
$DIMSTYLE
  2
STANDARD
  9
$DIMCLRD
 70
     0
  9
$DIMCLRE
 70
     0
  9
$DIMCLRT
 70
     0
  9
$DIMTFAC
 40
1.0
  9
$DIMGAP
 40
0.09
  9
$LUNITS
 70
     2
  9
$LUPREC
 70
     4
  9
$AXISMODE
 70
     0
  9
$AXISUNIT
 10
0.0
 20
0.0
  9
$SKETCHINC
 40
0.1
  9
$FILLETRAD
 40
0.0
  9
$AUNITS
 70
     0
  9
$AUPREC
 70
     0
  9
$MENU
  1
acad
  9
$ELEVATION
 40
0.0
  9
$PELEVATION
 40
0.0
  9
$THICKNESS
 40
0.0
  9
$LIMCHECK
 70
     0
  9
$BLIPMODE
 70
     1
  9
$CHAMFERA
 40
0.0
  9
$CHAMFERB
 40
0.0
  9
$SKPOLY
 70
     0
  9
$TDCREATE
 40
0.000000000
  9
$TDUPDATE
 40
0.000000000
  9
$TDINDWG
 40
0.0000000000
  9
$TDUSRTIMER
 40
0.0000000000
  9
$USRTIMER
 70
     1
  9
$ANGBASE
 50
0.0
  9
$ANGDIR
 70
     0
  9
$PDMODE
 70
     0
  9
$PDSIZE
 40
0.0
  9
$PLINEWID
 40
0.0
  9
$COORDS
 70
     0
  9
$SPLFRAME
 70
     0
  9
$SPLINETYPE
 70
     6
  9
$SPLINESEGS
 70
     8
  9
$ATTDIA
 70
     0
  9
$ATTREQ
 70
     1
  9
$HANDLING
 70
     1
  9
$HANDSEED
  5
B77
  9
$SURFTAB1
 70
     6
  9
$SURFTAB2
 70
     6
  9
$SURFTYPE
 70
     6
  9
$SURFU
 70
     6
  9
$SURFV
 70
     6
  9
$UCSNAME
  2

  9
$UCSORG
 10
0.0
 20
0.0
 30
0.0
  9
$UCSXDIR
 10
1.0
 20
0.0
 30
0.0
  9
$UCSYDIR
 10
0.0
 20
1.0
 30
0.0
  9
$PUCSNAME
  2

  9
$PUCSORG
 10
0.0
 20
0.0
 30
0.0
  9
$PUCSXDIR
 10
1.0
 20
0.0
 30
0.0
  9
$PUCSYDIR
 10
0.0
 20
1.0
 30
0.0
  9
$USERI1
 70
     0
  9
$USERI2
 70
     0
  9
$USERI3
 70
     0
  9
$USERI4
 70
     0
  9
$USERI5
 70
     0
  9
$USERR1
 40
0.0
  9
$USERR2
 40
0.0
  9
$USERR3
 40
0.0
  9
$USERR4
 40
0.0
  9
$USERR5
 40
0.0
  9
$WORLDVIEW
 70
     1
  9
$SHADEDGE
 70
     3
  9
$SHADEDIF
 70
    70
  9
$TILEMODE
 70
     1
  9
$MAXACTVP
 70
    16
  9
$PINSBASE
 10
0.0
 20
0.0
 30
0.0
  9
$PLIMCHECK
 70
     0
  9
$PEXTMIN
 10
1.000000E+20
 20
1.000000E+20
 30
1.000000E+20
  9
$PEXTMAX
 10
-1.000000E+20
 20
-1.000000E+20
 30
-1.000000E+20
  9
$PLIMMIN
 10
0.0
 20
0.0
  9
$PLIMMAX
 10
12.0
 20
9.0
  9
$UNITMODE
 70
     0
  9
$VISRETAIN
 70
     0
  9
$PLINEGEN
 70
     1
  9
$PSLTSCALE
 70
     0
  9
$TREEDEPTH
 70
  3020
  9
$DWGCODEPAGE
  3
dos850
  0
ENDSEC
  0
SECTION
  2
TABLES
  0
TABLE
  2
VPORT
 70
     1
  0
VPORT
  2
*ACTIVE
 70
     0
 10
0.0
 20
0.0
 11
1.0
 21
1.0
 12
6.591288
 22
4.579184
 13
0.0
 23
0.0
 14
1.0
 24
1.0
 15
0.0
 25
0.0
 16
0.0
 26
0.0
 36
1.0
 17
0.0
 27
0.0
 37
0.0
 40
9.158369
 41
0.688564
 42
50.0
 43
0.0
 44
0.0
 50
0.0
 51
0.0
 71
     0
 72
   100
 73
     1
 74
     1
 75
     0
 76
     0
 77
     0
 78
     0
  0
ENDTAB
  0
TABLE
  2
LTYPE
 70
     1
  0
LTYPE
  2
CONTINUOUS
 70
    64
  3
Solid line
 72
    65
 73
     0
 40
0.0
  0
ENDTAB
  0
TABLE
  2
LAYER
 70
     2
  0
LAYER
  2
0
 70
     0
 62
     7
  6
CONTINUOUS
  0
LAYER
  2
LAYER_1
 70
     0
 62
     7
  6
CONTINUOUS
  0
ENDTAB
  0
TABLE
  2
STYLE
 70
     1
  0
STYLE
  2
STANDARD
 70
     0
 40
0.0
 41
1.0
 50
0.0
 71
     0
 42
0.0
  3
txt
  4

  0
ENDTAB
  0
TABLE
  2
VIEW
 70
     0
  0
ENDTAB
  0
TABLE
  2
UCS
 70
     0
  0
ENDTAB
  0
TABLE
  2
APPID
 70
     1
  0
APPID
  2
ACAD
 70
     0
  0
ENDTAB
  0
TABLE
  2
DIMSTYLE
 70
     1
  0
DIMSTYLE
  2
STANDARD
 70
     0
  3

  4

  5

  6

  7

 40
1.0
 41
0.18
 42
0.0625
 43
0.38
 44
0.18
 45
0.0
 46
0.0
 47
0.0
 48
0.0
 71
     0
 72
     0
 73
     1
 74
     1
 75
     0
 76
     0
 77
     0
 78
     0
140
0.18
141
0.09
142
0.0
143
25.4
144
1.0
145
0.0
146
1.0
147
0.09
170
     0
171
     2
172
     0
173
     0
174
     0
175
     0
176
     0
177
     0
178
     0
  0
ENDTAB
  0
ENDSEC
  0
SECTION
  2
BLOCKS
  0
ENDSEC
  0
SECTION
  2
ENTITIES
  0
POLYLINE
  8
0
  5
25
 66
     1
 10
0.0
 20
0.0
 30
0.0
  0
VERTEX
  8
0
  5
26
 10
-6.28968
 20
1.12357
 30
0.0
  0
VERTEX
  8
0
  5
27
 10
-6.28968
 20
1.12357
 30
0.0
  0
VERTEX
  8
0
  5
28
 10
-6.28692
 20
1.12351
 30
0.0
  0
VERTEX
  8
0
  5
29
 10
-6.27913
 20
1.12338
 30
0.0
  0
VERTEX
  8
0
  5
2A
 10
-6.26704
 20
1.12317
 30
0.0
  0
VERTEX
  8
0
  5
2B
 10
-6.25136
 20
1.12292
 30
0.0
  0
VERTEX
  8
0
  5
2C
 10
-6.23279
 20
1.12259
 30
0.0
  0
VERTEX
  8
0
  5
2D
 10
-6.21208
 20
1.12225
 30
0.0
  0
VERTEX
  8
0
  5
2E
 10
-6.18993
 20
1.12187
 30
0.0
  0
VERTEX
  8
0
  5
2F
 10
-6.16707
 20
1.1215
 30
0.0
  0
VERTEX
  8
0
  5
30
 10
-6.14418
 20
1.12111
 30
0.0
  0
VERTEX
  8
0
  5
31
 10
-6.12204
 20
1.12073
 30
0.0
  0
VERTEX
  8
0
  5
32
 10
-6.10132
 20
1.12037
 30
0.0
  0
VERTEX
  8
0
  5
33
 10
-6.08278
 20
1.12007
 30
0.0
  0
VERTEX
  8
0
  5
34
 10
-6.06709
 20
1.1198
 30
0.0
  0
VERTEX
  8
0
  5
35
 10
-6.055
 20
1.11961
 30
0.0
  0
VERTEX
  8
0
  5
36
 10
-6.04721
 20
1.11948
 30
0.0
  0
VERTEX
  8
0
  5
37
 10
-6.04447
 20
1.11944
 30
0.0
  0
VERTEX
  8
0
  5
38
 10
-6.04431
 20
1.11798
 30
0.0
  0
VERTEX
  8
0
  5
39
 10
-6.0439
 20
1.11388
 30
0.0
  0
VERTEX
  8
0
  5
3A
 10
-6.04325
 20
1.1075
 30
0.0
  0
VERTEX
  8
0
  5
3B
 10
-6.04243
 20
1.09924
 30
0.0
  0
VERTEX
  8
0
  5
3C
 10
-6.04143
 20
1.08945
 30
0.0
  0
VERTEX
  8
0
  5
3D
 10
-6.04033
 20
1.07853
 30
0.0
  0
VERTEX
  8
0
  5
3E
 10
-6.03915
 20
1.06685
 30
0.0
  0
VERTEX
  8
0
  5
3F
 10
-6.03795
 20
1.0548
 30
0.0
  0
VERTEX
  8
0
  5
40
 10
-6.03672
 20
1.04274
 30
0.0
  0
VERTEX
  8
0
  5
41
 10
-6.03555
 20
1.03106
 30
0.0
  0
VERTEX
  8
0
  5
42
 10
-6.03445
 20
1.02014
 30
0.0
  0
VERTEX
  8
0
  5
43
 10
-6.03347
 20
1.01036
 30
0.0
  0
VERTEX
  8
0
  5
44
 10
-6.03263
 20
1.00208
 30
0.0
  0
VERTEX
  8
0
  5
45
 10
-6.03199
 20
0.99571
 30
0.0
  0
VERTEX
  8
0
  5
46
 10
-6.03158
 20
0.9916
 30
0.0
  0
VERTEX
  8
0
  5
47
 10
-6.03144
 20
0.99016
 30
0.0
  0
VERTEX
  8
0
  5
48
 10
-6.02943
 20
0.99013
 30
0.0
  0
VERTEX
  8
0
  5
49
 10
-6.02379
 20
0.99005
 30
0.0
  0
VERTEX
  8
0
  5
4A
 10
-6.01501
 20
0.98992
 30
0.0
  0
VERTEX
  8
0
  5
4B
 10
-6.00365
 20
0.98976
 30
0.0
  0
VERTEX
  8
0
  5
4C
 10
-5.99018
 20
0.98956
 30
0.0
  0
VERTEX
  8
0
  5
4D
 10
-5.97517
 20
0.98935
 30
0.0
  0
VERTEX
  8
0
  5
4E
 10
-5.95911
 20
0.98911
 30
0.0
  0
VERTEX
  8
0
  5
4F
 10
-5.94254
 20
0.9889
 30
0.0
  0
VERTEX
  8
0
  5
50
 10
-5.92595
 20
0.98866
 30
0.0
  0
VERTEX
  8
0
  5
51
 10
-5.90989
 20
0.98843
 30
0.0
  0
VERTEX
  8
0
  5
52
 10
-5.89486
 20
0.98821
 30
0.0
  0
VERTEX
  8
0
  5
53
 10
-5.88142
 20
0.98802
 30
0.0
  0
VERTEX
  8
0
  5
54
 10
-5.87004
 20
0.98785
 30
0.0
  0
VERTEX
  8
0
  5
55
 10
-5.86128
 20
0.98773
 30
0.0
  0
VERTEX
  8
0
  5
56
 10
-5.85564
 20
0.98765
 30
0.0
  0
VERTEX
  8
0
  5
57
 10
-5.85365
 20
0.98764
 30
0.0
  0
VERTEX
  8
0
  5
58
 10
-5.84316
 20
0.98161
 30
0.0
  0
VERTEX
  8
0
  5
59
 10
-5.83359
 20
0.96477
 30
0.0
  0
VERTEX
  8
0
  5
5A
 10
-5.82449
 20
0.93844
 30
0.0
  0
VERTEX
  8
0
  5
5B
 10
-5.81544
 20
0.90397
 30
0.0
  0
VERTEX
  8
0
  5
5C
 10
-5.80599
 20
0.86267
 30
0.0
  0
VERTEX
  8
0
  5
5D
 10
-5.79572
 20
0.81591
 30
0.0
  0
VERTEX
  8
0
  5
5E
 10
-5.78419
 20
0.76501
 30
0.0
  0
VERTEX
  8
0
  5
5F
 10
-5.771
 20
0.71133
 30
0.0
  0
VERTEX
  8
0
  5
60
 10
-5.75567
 20
0.65617
 30
0.0
  0
VERTEX
  8
0
  5
61
 10
-5.73781
 20
0.60091
 30
0.0
  0
VERTEX
  8
0
  5
62
 10
-5.71697
 20
0.54685
 30
0.0
  0
VERTEX
  8
0
  5
63
 10
-5.69273
 20
0.49537
 30
0.0
  0
VERTEX
  8
0
  5
64
 10
-5.66463
 20
0.44777
 30
0.0
  0
VERTEX
  8
0
  5
65
 10
-5.63228
 20
0.40541
 30
0.0
  0
VERTEX
  8
0
  5
66
 10
-5.59522
 20
0.36962
 30
0.0
  0
VERTEX
  8
0
  5
67
 10
-5.55304
 20
0.34176
 30
0.0
  0
VERTEX
  8
0
  5
68
 10
-5.33255
 20
0.20938
 30
0.0
  0
VERTEX
  8
0
  5
69
 10
-5.16904
 20
0.07589
 30
0.0
  0
VERTEX
  8
0
  5
6A
 10
-5.05787
 20
-0.0561
 30
0.0
  0
VERTEX
  8
0
  5
6B
 10
-4.99449
 20
-0.18401
 30
0.0
  0
VERTEX
  8
0
  5
6C
 10
-4.97425
 20
-0.3052
 30
0.0
  0
VERTEX
  8
0
  5
6D
 10
-4.99259
 20
-0.41709
 30
0.0
  0
VERTEX
  8
0
  5
6E
 10
-5.04489
 20
-0.51705
 30
0.0
  0
VERTEX
  8
0
  5
6F
 10
-5.12659
 20
-0.60249
 30
0.0
  0
VERTEX
  8
0
  5
70
 10
-5.23304
 20
-0.67076
 30
0.0
  0
VERTEX
  8
0
  5
71
 10
-5.35967
 20
-0.71929
 30
0.0
  0
VERTEX
  8
0
  5
72
 10
-5.50188
 20
-0.74545
 30
0.0
  0
VERTEX
  8
0
  5
73
 10
-5.6551
 20
-0.74665
 30
0.0
  0
VERTEX
  8
0
  5
74
 10
-5.81469
 20
-0.72025
 30
0.0
  0
VERTEX
  8
0
  5
75
 10
-5.97608
 20
-0.66367
 30
0.0
  0
VERTEX
  8
0
  5
76
 10
-6.13466
 20
-0.57429
 30
0.0
  0
VERTEX
  8
0
  5
77
 10
-6.28585
 20
-0.4495
 30
0.0
  0
VERTEX
  8
0
  5
78
 10
-6.43735
 20
-0.57429
 30
0.0
  0
VERTEX
  8
0
  5
79
 10
-6.59691
 20
-0.66367
 30
0.0
  0
VERTEX
  8
0
  5
7A
 10
-6.7598
 20
-0.72025
 30
0.0
  0
VERTEX
  8
0
  5
7B
 10
-6.92136
 20
-0.74665
 30
0.0
  0
VERTEX
  8
0
  5
7C
 10
-7.07687
 20
-0.74545
 30
0.0
  0
VERTEX
  8
0
  5
7D
 10
-7.22168
 20
-0.71929
 30
0.0
  0
VERTEX
  8
0
  5
7E
 10
-7.35107
 20
-0.67076
 30
0.0
  0
VERTEX
  8
0
  5
7F
 10
-7.46039
 20
-0.60249
 30
0.0
  0
VERTEX
  8
0
  5
80
 10
-7.54491
 20
-0.51705
 30
0.0
  0
VERTEX
  8
0
  5
81
 10
-7.59999
 20
-0.41709
 30
0.0
  0
VERTEX
  8
0
  5
82
 10
-7.6209
 20
-0.3052
 30
0.0
  0
VERTEX
  8
0
  5
83
 10
-7.60299
 20
-0.18401
 30
0.0
  0
VERTEX
  8
0
  5
84
 10
-7.54154
 20
-0.0561
 30
0.0
  0
VERTEX
  8
0
  5
85
 10
-7.4319
 20
0.07589
 30
0.0
  0
VERTEX
  8
0
  5
86
 10
-7.26935
 20
0.20938
 30
0.0
  0
VERTEX
  8
0
  5
87
 10
-7.04924
 20
0.34176
 30
0.0
  0
VERTEX
  8
0
  5
88
 10
-7.00677
 20
0.36962
 30
0.0
  0
VERTEX
  8
0
  5
89
 10
-6.96898
 20
0.40541
 30
0.0
  0
VERTEX
  8
0
  5
8A
 10
-6.93548
 20
0.44777
 30
0.0
  0
VERTEX
  8
0
  5
8B
 10
-6.90594
 20
0.49537
 30
0.0
  0
VERTEX
  8
0
  5
8C
 10
-6.87995
 20
0.54685
 30
0.0
  0
VERTEX
  8
0
  5
8D
 10
-6.85718
 20
0.60091
 30
0.0
  0
VERTEX
  8
0
  5
8E
 10
-6.83725
 20
0.65617
 30
0.0
  0
VERTEX
  8
0
  5
8F
 10
-6.8198
 20
0.71133
 30
0.0
  0
VERTEX
  8
0
  5
90
 10
-6.80446
 20
0.76501
 30
0.0
  0
VERTEX
  8
0
  5
91
 10
-6.79087
 20
0.81591
 30
0.0
  0
VERTEX
  8
0
  5
92
 10
-6.77866
 20
0.86267
 30
0.0
  0
VERTEX
  8
0
  5
93
 10
-6.76749
 20
0.90397
 30
0.0
  0
VERTEX
  8
0
  5
94
 10
-6.75696
 20
0.93844
 30
0.0
  0
VERTEX
  8
0
  5
95
 10
-6.74673
 20
0.96477
 30
0.0
  0
VERTEX
  8
0
  5
96
 10
-6.73643
 20
0.98161
 30
0.0
  0
VERTEX
  8
0
  5
97
 10
-6.72571
 20
0.98764
 30
0.0
  0
VERTEX
  8
0
  5
98
 10
-6.7237
 20
0.98765
 30
0.0
  0
VERTEX
  8
0
  5
99
 10
-6.71806
 20
0.98773
 30
0.0
  0
VERTEX
  8
0
  5
9A
 10
-6.70928
 20
0.98785
 30
0.0
  0
VERTEX
  8
0
  5
9B
 10
-6.69792
 20
0.98802
 30
0.0
  0
VERTEX
  8
0
  5
9C
 10
-6.68445
 20
0.98821
 30
0.0
  0
VERTEX
  8
0
  5
9D
 10
-6.66944
 20
0.98843
 30
0.0
  0
VERTEX
  8
0
  5
9E
 10
-6.65338
 20
0.98866
 30
0.0
  0
VERTEX
  8
0
  5
9F
 10
-6.63681
 20
0.9889
 30
0.0
  0
VERTEX
  8
0
  5
A0
 10
-6.62022
 20
0.98911
 30
0.0
  0
VERTEX
  8
0
  5
A1
 10
-6.60416
 20
0.98935
 30
0.0
  0
VERTEX
  8
0
  5
A2
 10
-6.58913
 20
0.98956
 30
0.0
  0
VERTEX
  8
0
  5
A3
 10
-6.57569
 20
0.98976
 30
0.0
  0
VERTEX
  8
0
  5
A4
 10
-6.56431
 20
0.98992
 30
0.0
  0
VERTEX
  8
0
  5
A5
 10
-6.55555
 20
0.99005
 30
0.0
  0
VERTEX
  8
0
  5
A6
 10
-6.54991
 20
0.99013
 30
0.0
  0
VERTEX
  8
0
  5
A7
 10
-6.54792
 20
0.99016
 30
0.0
  0
VERTEX
  8
0
  5
A8
 10
-6.54776
 20
0.9916
 30
0.0
  0
VERTEX
  8
0
  5
A9
 10
-6.54735
 20
0.99571
 30
0.0
  0
VERTEX
  8
0
  5
AA
 10
-6.5467
 20
1.00208
 30
0.0
  0
VERTEX
  8
0
  5
AB
 10
-6.54588
 20
1.01036
 30
0.0
  0
VERTEX
  8
0
  5
AC
 10
-6.54488
 20
1.02014
 30
0.0
  0
VERTEX
  8
0
  5
AD
 10
-6.54378
 20
1.03106
 30
0.0
  0
VERTEX
  8
0
  5
AE
 10
-6.5426
 20
1.04274
 30
0.0
  0
VERTEX
  8
0
  5
AF
 10
-6.5414
 20
1.0548
 30
0.0
  0
VERTEX
  8
0
  5
B0
 10
-6.54017
 20
1.06685
 30
0.0
  0
VERTEX
  8
0
  5
B1
 10
-6.539
 20
1.07853
 30
0.0
  0
VERTEX
  8
0
  5
B2
 10
-6.5379
 20
1.08945
 30
0.0
  0
VERTEX
  8
0
  5
B3
 10
-6.53692
 20
1.09924
 30
0.0
  0
VERTEX
  8
0
  5
B4
 10
-6.53608
 20
1.1075
 30
0.0
  0
VERTEX
  8
0
  5
B5
 10
-6.53544
 20
1.11388
 30
0.0
  0
VERTEX
  8
0
  5
B6
 10
-6.53503
 20
1.11798
 30
0.0
  0
VERTEX
  8
0
  5
B7
 10
-6.53489
 20
1.11944
 30
0.0
  0
VERTEX
  8
0
  5
B8
 10
-6.53213
 20
1.11948
 30
0.0
  0
VERTEX
  8
0
  5
B9
 10
-6.52434
 20
1.11961
 30
0.0
  0
VERTEX
  8
0
  5
BA
 10
-6.51225
 20
1.1198
 30
0.0
  0
VERTEX
  8
0
  5
BB
 10
-6.49657
 20
1.12007
 30
0.0
  0
VERTEX
  8
0
  5
BC
 10
-6.478
 20
1.12037
 30
0.0
  0
VERTEX
  8
0
  5
BD
 10
-6.45729
 20
1.12073
 30
0.0
  0
VERTEX
  8
0
  5
BE
 10
-6.43514
 20
1.12111
 30
0.0
  0
VERTEX
  8
0
  5
BF
 10
-6.41228
 20
1.1215
 30
0.0
  0
VERTEX
  8
0
  5
C0
 10
-6.38939
 20
1.12187
 30
0.0
  0
VERTEX
  8
0
  5
C1
 10
-6.36725
 20
1.12225
 30
0.0
  0
VERTEX
  8
0
  5
C2
 10
-6.34653
 20
1.12259
 30
0.0
  0
VERTEX
  8
0
  5
C3
 10
-6.32799
 20
1.12292
 30
0.0
  0
VERTEX
  8
0
  5
C4
 10
-6.3123
 20
1.12317
 30
0.0
  0
VERTEX
  8
0
  5
C5
 10
-6.30021
 20
1.12338
 30
0.0
  0
VERTEX
  8
0
  5
C6
 10
-6.29242
 20
1.12351
 30
0.0
  0
SEQEND
  8
0
  5
C7
  0
POLYLINE
  8
0
  5
C8
 66
     1
 10
0.0
 20
0.0
 30
0.0
  0
VERTEX
  8
0
  5
C9
 10
-8.24165
 20
-3.82041
 30
0.0
  0
VERTEX
  8
0
  5
CA
 10
-8.24165
 20
-3.82041
 30
0.0
  0
VERTEX
  8
0
  5
CB
 10
-8.21054
 20
-3.82198
 30
0.0
  0
VERTEX
  8
0
  5
CC
 10
-8.18032
 20
-3.82662
 30
0.0
  0
VERTEX
  8
0
  5
CD
 10
-8.15113
 20
-3.83414
 30
0.0
  0
VERTEX
  8
0
  5
CE
 10
-8.12315
 20
-3.84443
 30
0.0
  0
VERTEX
  8
0
  5
CF
 10
-8.0965
 20
-3.85729
 30
0.0
  0
VERTEX
  8
0
  5
D0
 10
-8.07136
 20
-3.8726
 30
0.0
  0
VERTEX
  8
0
  5
D1
 10
-8.04787
 20
-3.89018
 30
0.0
  0
VERTEX
  8
0
  5
D2
 10
-8.02621
 20
-3.90989
 30
0.0
  0
VERTEX
  8
0
  5
D3
 10
-8.0065
 20
-3.93155
 30
0.0
  0
VERTEX
  8
0
  5
D4
 10
-7.98892
 20
-3.95504
 30
0.0
  0
VERTEX
  8
0
  5
D5
 10
-7.97361
 20
-3.98018
 30
0.0
  0
VERTEX
  8
0
  5
D6
 10
-7.96075
 20
-4.00683
 30
0.0
  0
VERTEX
  8
0
  5
D7
 10
-7.95046
 20
-4.03481
 30
0.0
  0
VERTEX
  8
0
  5
D8
 10
-7.94294
 20
-4.064
 30
0.0
  0
VERTEX
  8
0
  5
D9
 10
-7.9383
 20
-4.09422
 30
0.0
  0
VERTEX
  8
0
  5
DA
 10
-7.93673
 20
-4.12533
 30
0.0
  0
VERTEX
  8
0
  5
DB
 10
-7.9383
 20
-4.15641
 30
0.0
  0
VERTEX
  8
0
  5
DC
 10
-7.94294
 20
-4.18663
 30
0.0
  0
VERTEX
  8
0
  5
DD
 10
-7.95046
 20
-4.2158
 30
0.0
  0
VERTEX
  8
0
  5
DE
 10
-7.96075
 20
-4.2438
 30
0.0
  0
VERTEX
  8
0
  5
DF
 10
-7.97361
 20
-4.27044
 30
0.0
  0
VERTEX
  8
0
  5
E0
 10
-7.98892
 20
-4.29558
 30
0.0
  0
VERTEX
  8
0
  5
E1
 10
-8.0065
 20
-4.31906
 30
0.0
  0
VERTEX
  8
0
  5
E2
 10
-8.02621
 20
-4.34075
 30
0.0
  0
VERTEX
  8
0
  5
E3
 10
-8.04787
 20
-4.36044
 30
0.0
  0
VERTEX
  8
0
  5
E4
 10
-8.07136
 20
-4.37803
 30
0.0
  0
VERTEX
  8
0
  5
E5
 10
-8.0965
 20
-4.39333
 30
0.0
  0
VERTEX
  8
0
  5
E6
 10
-8.12315
 20
-4.4062
 30
0.0
  0
VERTEX
  8
0
  5
E7
 10
-8.15113
 20
-4.41647
 30
0.0
  0
VERTEX
  8
0
  5
E8
 10
-8.18032
 20
-4.42401
 30
0.0
  0
VERTEX
  8
0
  5
E9
 10
-8.21054
 20
-4.42865
 30
0.0
  0
VERTEX
  8
0
  5
EA
 10
-8.24165
 20
-4.43024
 30
0.0
  0
VERTEX
  8
0
  5
EB
 10
-8.27273
 20
-4.42865
 30
0.0
  0
VERTEX
  8
0
  5
EC
 10
-8.30295
 20
-4.42401
 30
0.0
  0
VERTEX
  8
0
  5
ED
 10
-8.33212
 20
-4.41647
 30
0.0
  0
VERTEX
  8
0
  5
EE
 10
-8.36012
 20
-4.4062
 30
0.0
  0
VERTEX
  8
0
  5
EF
 10
-8.38676
 20
-4.39333
 30
0.0
  0
VERTEX
  8
0
  5
F0
 10
-8.4119
 20
-4.37803
 30
0.0
  0
VERTEX
  8
0
  5
F1
 10
-8.43538
 20
-4.36044
 30
0.0
  0
VERTEX
  8
0
  5
F2
 10
-8.45707
 20
-4.34075
 30
0.0
  0
VERTEX
  8
0
  5
F3
 10
-8.47676
 20
-4.31906
 30
0.0
  0
VERTEX
  8
0
  5
F4
 10
-8.49435
 20
-4.29558
 30
0.0
  0
VERTEX
  8
0
  5
F5
 10
-8.50965
 20
-4.27044
 30
0.0
  0
VERTEX
  8
0
  5
F6
 10
-8.52252
 20
-4.2438
 30
0.0
  0
VERTEX
  8
0
  5
F7
 10
-8.53279
 20
-4.2158
 30
0.0
  0
VERTEX
  8
0
  5
F8
 10
-8.54033
 20
-4.18663
 30
0.0
  0
VERTEX
  8
0
  5
F9
 10
-8.54497
 20
-4.15641
 30
0.0
  0
VERTEX
  8
0
  5
FA
 10
-8.54656
 20
-4.12533
 30
0.0
  0
VERTEX
  8
0
  5
FB
 10
-8.54497
 20
-4.09422
 30
0.0
  0
VERTEX
  8
0
  5
FC
 10
-8.54033
 20
-4.064
 30
0.0
  0
VERTEX
  8
0
  5
FD
 10
-8.53279
 20
-4.03481
 30
0.0
  0
VERTEX
  8
0
  5
FE
 10
-8.52252
 20
-4.00683
 30
0.0
  0
VERTEX
  8
0
  5
FF
 10
-8.50965
 20
-3.98018
 30
0.0
  0
VERTEX
  8
0
  5
100
 10
-8.49435
 20
-3.95504
 30
0.0
  0
VERTEX
  8
0
  5
101
 10
-8.47676
 20
-3.93155
 30
0.0
  0
VERTEX
  8
0
  5
102
 10
-8.45707
 20
-3.90989
 30
0.0
  0
VERTEX
  8
0
  5
103
 10
-8.43538
 20
-3.89018
 30
0.0
  0
VERTEX
  8
0
  5
104
 10
-8.4119
 20
-3.8726
 30
0.0
  0
VERTEX
  8
0
  5
105
 10
-8.38676
 20
-3.85729
 30
0.0
  0
VERTEX
  8
0
  5
106
 10
-8.36012
 20
-3.84443
 30
0.0
  0
VERTEX
  8
0
  5
107
 10
-8.33212
 20
-3.83414
 30
0.0
  0
VERTEX
  8
0
  5
108
 10
-8.30295
 20
-3.82662
 30
0.0
  0
VERTEX
  8
0
  5
109
 10
-8.27273
 20
-3.82198
 30
0.0
  0
SEQEND
  8
0
  5
10A
  0
POLYLINE
  8
0
  5
10B
 66
     1
 10
0.0
 20
0.0
 30
0.0
  0
VERTEX
  8
0
  5
10C
 10
0.37441
 20
-7.75674
 30
0.0
  0
VERTEX
  8
0
  5
10D
 10
0.37441
 20
-7.75674
 30
0.0
  0
VERTEX
  8
0
  5
10E
 10
0.67968
 20
-7.77446
 30
0.0
  0
VERTEX
  8
0
  5
10F
 10
0.94916
 20
-7.82002
 30
0.0
  0
VERTEX
  8
0
  5
110
 10
1.18532
 20
-7.89039
 30
0.0
  0
VERTEX
  8
0
  5
111
 10
1.39067
 20
-7.98256
 30
0.0
  0
VERTEX
  8
0
  5
112
 10
1.56766
 20
-8.09348
 30
0.0
  0
VERTEX
  8
0
  5
113
 10
1.71883
 20
-8.2202
 30
0.0
  0
VERTEX
  8
0
  5
114
 10
1.84663
 20
-8.35966
 30
0.0
  0
VERTEX
  8
0
  5
115
 10
1.95357
 20
-8.50888
 30
0.0
  0
VERTEX
  8
0
  5
116
 10
2.0421
 20
-8.6648
 30
0.0
  0
VERTEX
  8
0
  5
117
 10
2.11476
 20
-8.82445
 30
0.0
  0
VERTEX
  8
0
  5
118
 10
2.174
 20
-8.9848
 30
0.0
  0
VERTEX
  8
0
  5
119
 10
2.22233
 20
-9.14285
 30
0.0
  0
VERTEX
  8
0
  5
11A
 10
2.26222
 20
-9.29556
 30
0.0
  0
VERTEX
  8
0
  5
11B
 10
2.29617
 20
-9.43995
 30
0.0
  0
VERTEX
  8
0
  5
11C
 10
2.32667
 20
-9.57298
 30
0.0
  0
VERTEX
  8
0
  5
11D
 10
2.35621
 20
-9.69167
 30
0.0
  0
VERTEX
  8
0
  5
11E
 10
2.3688
 20
-9.72669
 30
0.0
  0
VERTEX
  8
0
  5
11F
 10
2.38621
 20
-9.75824
 30
0.0
  0
VERTEX
  8
0
  5
120
 10
2.40774
 20
-9.78643
 30
0.0
  0
VERTEX
  8
0
  5
121
 10
2.43273
 20
-9.8114
 30
0.0
  0
VERTEX
  8
0
  5
122
 10
2.46046
 20
-9.83327
 30
0.0
  0
VERTEX
  8
0
  5
123
 10
2.49029
 20
-9.85222
 30
0.0
  0
VERTEX
  8
0
  5
124
 10
2.5215
 20
-9.86835
 30
0.0
  0
VERTEX
  8
0
  5
125
 10
2.55342
 20
-9.88181
 30
0.0
  0
VERTEX
  8
0
  5
126
 10
2.58534
 20
-9.8927
 30
0.0
  0
VERTEX
  8
0
  5
127
 10
2.6166
 20
-9.90121
 30
0.0
  0
VERTEX
  8
0
  5
128
 10
2.64651
 20
-9.90744
 30
0.0
  0
VERTEX
  8
0
  5
129
 10
2.67439
 20
-9.91156
 30
0.0
  0
VERTEX
  8
0
  5
12A
 10
2.69953
 20
-9.91365
 30
0.0
  0
VERTEX
  8
0
  5
12B
 10
2.72127
 20
-9.9139
 30
0.0
  0
VERTEX
  8
0
  5
12C
 10
2.73891
 20
-9.91242
 30
0.0
  0
VERTEX
  8
0
  5
12D
 10
2.75179
 20
-9.90936
 30
0.0
  0
VERTEX
  8
0
  5
12E
 10
2.97356
 20
-9.77015
 30
0.0
  0
VERTEX
  8
0
  5
12F
 10
3.13496
 20
-9.54945
 30
0.0
  0
VERTEX
  8
0
  5
130
 10
3.24601
 20
-9.25689
 30
0.0
  0
VERTEX
  8
0
  5
131
 10
3.31678
 20
-8.90211
 30
0.0
  0
VERTEX
  8
0
  5
132
 10
3.3573
 20
-8.49471
 30
0.0
  0
VERTEX
  8
0
  5
133
 10
3.37765
 20
-8.04436
 30
0.0
  0
VERTEX
  8
0
  5
134
 10
3.38786
 20
-7.56066
 30
0.0
  0
VERTEX
  8
0
  5
135
 10
3.398
 20
-7.05326
 30
0.0
  0
VERTEX
  8
0
  5
136
 10
3.41809
 20
-6.53176
 30
0.0
  0
VERTEX
  8
0
  5
137
 10
3.45821
 20
-6.00583
 30
0.0
  0
VERTEX
  8
0
  5
138
 10
3.52839
 20
-5.48506
 30
0.0
  0
VERTEX
  8
0
  5
139
 10
3.63871
 20
-4.97912
 30
0.0
  0
VERTEX
  8
0
  5
13A
 10
3.79919
 20
-4.49761
 30
0.0
  0
VERTEX
  8
0
  5
13B
 10
4.01991
 20
-4.05017
 30
0.0
  0
VERTEX
  8
0
  5
13C
 10
4.31089
 20
-3.64643
 30
0.0
  0
VERTEX
  8
0
  5
13D
 10
4.68221
 20
-3.29603
 30
0.0
  0
VERTEX
  8
0
  5
13E
 10
4.96088
 20
-3.09903
 30
0.0
  0
VERTEX
  8
0
  5
13F
 10
5.23569
 20
-2.93937
 30
0.0
  0
VERTEX
  8
0
  5
140
 10
5.50539
 20
-2.81436
 30
0.0
  0
VERTEX
  8
0
  5
141
 10
5.7688
 20
-2.72134
 30
0.0
  0
VERTEX
  8
0
  5
142
 10
6.02468
 20
-2.65762
 30
0.0
  0
VERTEX
  8
0
  5
143
 10
6.27185
 20
-2.62057
 30
0.0
  0
VERTEX
  8
0
  5
144
 10
6.50909
 20
-2.60749
 30
0.0
  0
VERTEX
  8
0
  5
145
 10
6.73519
 20
-2.61573
 30
0.0
  0
VERTEX
  8
0
  5
146
 10
6.94892
 20
-2.64259
 30
0.0
  0
VERTEX
  8
0
  5
147
 10
7.1491
 20
-2.68544
 30
0.0
  0
VERTEX
  8
0
  5
148
 10
7.33449
 20
-2.74159
 30
0.0
  0
VERTEX
  8
0
  5
149
 10
7.50392
 20
-2.80839
 30
0.0
  0
VERTEX
  8
0
  5
14A
 10
7.65614
 20
-2.88314
 30
0.0
  0
VERTEX
  8
0
  5
14B
 10
7.78997
 20
-2.9632
 30
0.0
  0
VERTEX
  8
0
  5
14C
 10
7.90419
 20
-3.04589
 30
0.0
  0
VERTEX
  8
0
  5
14D
 10
7.99759
 20
-3.12855
 30
0.0
  0
VERTEX
  8
0
  5
14E
 10
8.00895
 20
-3.12409
 30
0.0
  0
VERTEX
  8
0
  5
14F
 10
8.02631
 20
-3.0979
 30
0.0
  0
VERTEX
  8
0
  5
150
 10
8.04907
 20
-3.05487
 30
0.0
  0
VERTEX
  8
0
  5
151
 10
8.07667
 20
-2.99998
 30
0.0
  0
VERTEX
  8
0
  5
152
 10
8.10847
 20
-2.93811
 30
0.0
  0
VERTEX
  8
0
  5
153
 10
8.14393
 20
-2.87424
 30
0.0
  0
VERTEX
  8
0
  5
154
 10
8.18242
 20
-2.81327
 30
0.0
  0
VERTEX
  8
0
  5
155
 10
8.22339
 20
-2.76016
 30
0.0
  0
VERTEX
  8
0
  5
156
 10
8.2662
 20
-2.71981
 30
0.0
  0
VERTEX
  8
0
  5
157
 10
8.31029
 20
-2.69718
 30
0.0
  0
VERTEX
  8
0
  5
158
 10
8.35506
 20
-2.6972
 30
0.0
  0
VERTEX
  8
0
  5
159
 10
8.39995
 20
-2.72481
 30
0.0
  0
VERTEX
  8
0
  5
15A
 10
8.44432
 20
-2.78491
 30
0.0
  0
VERTEX
  8
0
  5
15B
 10
8.48762
 20
-2.88248
 30
0.0
  0
VERTEX
  8
0
  5
15C
 10
8.52923
 20
-3.02241
 30
0.0
  0
VERTEX
  8
0
  5
15D
 10
8.56859
 20
-3.20967
 30
0.0
  0
VERTEX
  8
0
  5
15E
 10
8.63409
 20
-3.15746
 30
0.0
  0
VERTEX
  8
0
  5
15F
 10
8.71241
 20
-3.10851
 30
0.0
  0
VERTEX
  8
0
  5
160
 10
8.80122
 20
-3.06423
 30
0.0
  0
VERTEX
  8
0
  5
161
 10
8.89824
 20
-3.02607
 30
0.0
  0
VERTEX
  8
0
  5
162
 10
9.00111
 20
-2.99543
 30
0.0
  0
VERTEX
  8
0
  5
163
 10
9.10757
 20
-2.97376
 30
0.0
  0
VERTEX
  8
0
  5
164
 10
9.21529
 20
-2.96247
 30
0.0
  0
VERTEX
  8
0
  5
165
 10
9.32199
 20
-2.96301
 30
0.0
  0
VERTEX
  8
0
  5
166
 10
9.42532
 20
-2.97678
 30
0.0
  0
VERTEX
  8
0
  5
167
 10
9.523
 20
-3.00523
 30
0.0
  0
VERTEX
  8
0
  5
168
 10
9.61272
 20
-3.04978
 30
0.0
  0
VERTEX
  8
0
  5
169
 10
9.69218
 20
-3.11188
 30
0.0
  0
VERTEX
  8
0
  5
16A
 10
9.75904
 20
-3.19291
 30
0.0
  0
VERTEX
  8
0
  5
16B
 10
9.81103
 20
-3.29436
 30
0.0
  0
VERTEX
  8
0
  5
16C
 10
9.84583
 20
-3.41761
 30
0.0
  0
VERTEX
  8
0
  5
16D
 10
9.86114
 20
-3.56412
 30
0.0
  0
VERTEX
  8
0
  5
16E
 10
9.92488
 20
-3.54282
 30
0.0
  0
VERTEX
  8
0
  5
16F
 10
9.983
 20
-3.51776
 30
0.0
  0
VERTEX
  8
0
  5
170
 10
10.03594
 20
-3.4899
 30
0.0
  0
VERTEX
  8
0
  5
171
 10
10.08423
 20
-3.46021
 30
0.0
  0
VERTEX
  8
0
  5
172
 10
10.12829
 20
-3.42962
 30
0.0
  0
VERTEX
  8
0
  5
173
 10
10.16863
 20
-3.3991
 30
0.0
  0
VERTEX
  8
0
  5
174
 10
10.20571
 20
-3.3696
 30
0.0
  0
VERTEX
  8
0
  5
175
 10
10.24005
 20
-3.3421
 30
0.0
  0
VERTEX
  8
0
  5
176
 10
10.27206
 20
-3.31751
 30
0.0
  0
VERTEX
  8
0
  5
177
 10
10.30228
 20
-3.29685
 30
0.0
  0
VERTEX
  8
0
  5
178
 10
10.33115
 20
-3.28103
 30
0.0
  0
VERTEX
  8
0
  5
179
 10
10.35919
 20
-3.27105
 30
0.0
  0
VERTEX
  8
0
  5
17A
 10
10.38682
 20
-3.26782
 30
0.0
  0
VERTEX
  8
0
  5
17B
 10
10.41458
 20
-3.27233
 30
0.0
  0
VERTEX
  8
0
  5
17C
 10
10.44291
 20
-3.28551
 30
0.0
  0
VERTEX
  8
0
  5
17D
 10
10.47231
 20
-3.30837
 30
0.0
  0
VERTEX
  8
0
  5
17E
 10
10.55163
 20
-3.39256
 30
0.0
  0
VERTEX
  8
0
  5
17F
 10
10.61207
 20
-3.47743
 30
0.0
  0
VERTEX
  8
0
  5
180
 10
10.65759
 20
-3.56282
 30
0.0
  0
VERTEX
  8
0
  5
181
 10
10.6922
 20
-3.64865
 30
0.0
  0
VERTEX
  8
0
  5
182
 10
10.71984
 20
-3.73474
 30
0.0
  0
VERTEX
  8
0
  5
183
 10
10.74451
 20
-3.82099
 30
0.0
  0
VERTEX
  8
0
  5
184
 10
10.77016
 20
-3.90727
 30
0.0
  0
VERTEX
  8
0
  5
185
 10
10.80079
 20
-3.99345
 30
0.0
  0
VERTEX
  8
0
  5
186
 10
10.84035
 20
-4.07937
 30
0.0
  0
VERTEX
  8
0
  5
187
 10
10.89284
 20
-4.16494
 30
0.0
  0
VERTEX
  8
0
  5
188
 10
10.96221
 20
-4.25001
 30
0.0
  0
VERTEX
  8
0
  5
189
 10
11.05248
 20
-4.33448
 30
0.0
  0
VERTEX
  8
0
  5
18A
 10
11.16758
 20
-4.41817
 30
0.0
  0
VERTEX
  8
0
  5
18B
 10
11.31151
 20
-4.50099
 30
0.0
  0
VERTEX
  8
0
  5
18C
 10
11.48822
 20
-4.58281
 30
0.0
  0
VERTEX
  8
0
  5
18D
 10
11.70173
 20
-4.66349
 30
0.0
  0
VERTEX
  8
0
  5
18E
 10
11.72788
 20
-4.5332
 30
0.0
  0
VERTEX
  8
0
  5
18F
 10
11.77248
 20
-4.40721
 30
0.0
  0
VERTEX
  8
0
  5
190
 10
11.83364
 20
-4.28789
 30
0.0
  0
VERTEX
  8
0
  5
191
 10
11.90949
 20
-4.17763
 30
0.0
  0
VERTEX
  8
0
  5
192
 10
11.99811
 20
-4.07878
 30
0.0
  0
VERTEX
  8
0
  5
193
 10
12.09765
 20
-3.99376
 30
0.0
  0
VERTEX
  8
0
  5
194
 10
12.20621
 20
-3.92492
 30
0.0
  0
VERTEX
  8
0
  5
195
 10
12.3219
 20
-3.87465
 30
0.0
  0
VERTEX
  8
0
  5
196
 10
12.44282
 20
-3.84531
 30
0.0
  0
VERTEX
  8
0
  5
197
 10
12.5671
 20
-3.83931
 30
0.0
  0
VERTEX
  8
0
  5
198
 10
12.69285
 20
-3.859
 30
0.0
  0
VERTEX
  8
0
  5
199
 10
12.81821
 20
-3.9068
 30
0.0
  0
VERTEX
  8
0
  5
19A
 10
12.94124
 20
-3.98504
 30
0.0
  0
VERTEX
  8
0
  5
19B
 10
13.0601
 20
-4.09614
 30
0.0
  0
VERTEX
  8
0
  5
19C
 10
13.17289
 20
-4.24245
 30
0.0
  0
VERTEX
  8
0
  5
19D
 10
13.27773
 20
-4.42638
 30
0.0
  0
VERTEX
  8
0
  5
19E
 10
13.34823
 20
-4.64499
 30
0.0
  0
VERTEX
  8
0
  5
19F
 10
13.34945
 20
-4.86049
 30
0.0
  0
VERTEX
  8
0
  5
1A0
 10
13.28941
 20
-5.06935
 30
0.0
  0
VERTEX
  8
0
  5
1A1
 10
13.17618
 20
-5.2681
 30
0.0
  0
VERTEX
  8
0
  5
1A2
 10
13.0178
 20
-5.4532
 30
0.0
  0
VERTEX
  8
0
  5
1A3
 10
12.82237
 20
-5.62119
 30
0.0
  0
VERTEX
  8
0
  5
1A4
 10
12.5979
 20
-5.76854
 30
0.0
  0
VERTEX
  8
0
  5
1A5
 10
12.35249
 20
-5.89178
 30
0.0
  0
VERTEX
  8
0
  5
1A6
 10
12.09415
 20
-5.98736
 30
0.0
  0
VERTEX
  8
0
  5
1A7
 10
11.83096
 20
-6.05182
 30
0.0
  0
VERTEX
  8
0
  5
1A8
 10
11.57098
 20
-6.08164
 30
0.0
  0
VERTEX
  8
0
  5
1A9
 10
11.32228
 20
-6.07335
 30
0.0
  0
VERTEX
  8
0
  5
1AA
 10
11.09289
 20
-6.0234
 30
0.0
  0
VERTEX
  8
0
  5
1AB
 10
10.89088
 20
-5.92833
 30
0.0
  0
VERTEX
  8
0
  5
1AC
 10
10.72431
 20
-5.78462
 30
0.0
  0
VERTEX
  8
0
  5
1AD
 10
10.60125
 20
-5.5888
 30
0.0
  0
VERTEX
  8
0
  5
1AE
 10
10.58381
 20
-5.56069
 30
0.0
  0
VERTEX
  8
0
  5
1AF
 10
10.56504
 20
-5.55037
 30
0.0
  0
VERTEX
  8
0
  5
1B0
 10
10.54505
 20
-5.55542
 30
0.0
  0
VERTEX
  8
0
  5
1B1
 10
10.52398
 20
-5.5735
 30
0.0
  0
VERTEX
  8
0
  5
1B2
 10
10.50195
 20
-5.60219
 30
0.0
  0
VERTEX
  8
0
  5
1B3
 10
10.47913
 20
-5.63913
 30
0.0
  0
VERTEX
  8
0
  5
1B4
 10
10.45562
 20
-5.68193
 30
0.0
  0
VERTEX
  8
0
  5
1B5
 10
10.43158
 20
-5.72822
 30
0.0
  0
VERTEX
  8
0
  5
1B6
 10
10.40711
 20
-5.77558
 30
0.0
  0
VERTEX
  8
0
  5
1B7
 10
10.38238
 20
-5.82168
 30
0.0
  0
VERTEX
  8
0
  5
1B8
 10
10.35752
 20
-5.8641
 30
0.0
  0
VERTEX
  8
0
  5
1B9
 10
10.33267
 20
-5.90049
 30
0.0
  0
VERTEX
  8
0
  5
1BA
 10
10.30794
 20
-5.92843
 30
0.0
  0
VERTEX
  8
0
  5
1BB
 10
10.2835
 20
-5.94558
 30
0.0
  0
VERTEX
  8
0
  5
1BC
 10
10.25945
 20
-5.94953
 30
0.0
  0
VERTEX
  8
0
  5
1BD
 10
10.23595
 20
-5.93792
 30
0.0
  0
VERTEX
  8
0
  5
1BE
 10
10.23584
 20
-5.9326
 30
0.0
  0
VERTEX
  8
0
  5
1BF
 10
10.23558
 20
-5.91757
 30
0.0
  0
VERTEX
  8
0
  5
1C0
 10
10.23516
 20
-5.89422
 30
0.0
  0
VERTEX
  8
0
  5
1C1
 10
10.23462
 20
-5.86395
 30
0.0
  0
VERTEX
  8
0
  5
1C2
 10
10.23397
 20
-5.82812
 30
0.0
  0
VERTEX
  8
0
  5
1C3
 10
10.23326
 20
-5.78815
 30
0.0
  0
VERTEX
  8
0
  5
1C4
 10
10.23249
 20
-5.74539
 30
0.0
  0
VERTEX
  8
0
  5
1C5
 10
10.23171
 20
-5.70126
 30
0.0
  0
VERTEX
  8
0
  5
1C6
 10
10.23091
 20
-5.6571
 30
0.0
  0
VERTEX
  8
0
  5
1C7
 10
10.23015
 20
-5.61434
 30
0.0
  0
VERTEX
  8
0
  5
1C8
 10
10.22943
 20
-5.57436
 30
0.0
  0
VERTEX
  8
0
  5
1C9
 10
10.22879
 20
-5.53855
 30
0.0
  0
VERTEX
  8
0
  5
1CA
 10
10.22824
 20
-5.50826
 30
0.0
  0
VERTEX
  8
0
  5
1CB
 10
10.22783
 20
-5.48493
 30
0.0
  0
VERTEX
  8
0
  5
1CC
 10
10.22757
 20
-5.4699
 30
0.0
  0
VERTEX
  8
0
  5
1CD
 10
10.22748
 20
-5.4646
 30
0.0
  0
VERTEX
  8
0
  5
1CE
 10
10.11634
 20
-5.49949
 30
0.0
  0
VERTEX
  8
0
  5
1CF
 10
9.99262
 20
-5.52585
 30
0.0
  0
VERTEX
  8
0
  5
1D0
 10
9.85867
 20
-5.54328
 30
0.0
  0
VERTEX
  8
0
  5
1D1
 10
9.71687
 20
-5.55141
 30
0.0
  0
VERTEX
  8
0
  5
1D2
 10
9.56955
 20
-5.54979
 30
0.0
  0
VERTEX
  8
0
  5
1D3
 10
9.41914
 20
-5.53808
 30
0.0
  0
VERTEX
  8
0
  5
1D4
 10
9.26797
 20
-5.51584
 30
0.0
  0
VERTEX
  8
0
  5
1D5
 10
9.11843
 20
-5.48271
 30
0.0
  0
VERTEX
  8
0
  5
1D6
 10
8.97286
 20
-5.43825
 30
0.0
  0
VERTEX
  8
0
  5
1D7
 10
8.83367
 20
-5.3821
 30
0.0
  0
VERTEX
  8
0
  5
1D8
 10
8.7032
 20
-5.31385
 30
0.0
  0
VERTEX
  8
0
  5
1D9
 10
8.58384
 20
-5.23312
 30
0.0
  0
VERTEX
  8
0
  5
1DA
 10
8.47794
 20
-5.13948
 30
0.0
  0
VERTEX
  8
0
  5
1DB
 10
8.38789
 20
-5.03256
 30
0.0
  0
VERTEX
  8
0
  5
1DC
 10
8.31604
 20
-4.91195
 30
0.0
  0
VERTEX
  8
0
  5
1DD
 10
8.2648
 20
-4.77728
 30
0.0
  0
VERTEX
  8
0
  5
1DE
 10
8.22405
 20
-4.81414
 30
0.0
  0
VERTEX
  8
0
  5
1DF
 10
8.1851
 20
-4.85325
 30
0.0
  0
VERTEX
  8
0
  5
1E0
 10
8.14787
 20
-4.89379
 30
0.0
  0
VERTEX
  8
0
  5
1E1
 10
8.11233
 20
-4.93501
 30
0.0
  0
VERTEX
  8
0
  5
1E2
 10
8.07837
 20
-4.97612
 30
0.0
  0
VERTEX
  8
0
  5
1E3
 10
8.04598
 20
-5.01636
 30
0.0
  0
VERTEX
  8
0
  5
1E4
 10
8.01507
 20
-5.05494
 30
0.0
  0
VERTEX
  8
0
  5
1E5
 10
7.98559
 20
-5.09113
 30
0.0
  0
VERTEX
  8
0
  5
1E6
 10
7.95745
 20
-5.12409
 30
0.0
  0
VERTEX
  8
0
  5
1E7
 10
7.93062
 20
-5.1531
 30
0.0
  0
VERTEX
  8
0
  5
1E8
 10
7.90503
 20
-5.17737
 30
0.0
  0
VERTEX
  8
0
  5
1E9
 10
7.88062
 20
-5.19614
 30
0.0
  0
VERTEX
  8
0
  5
1EA
 10
7.85731
 20
-5.20861
 30
0.0
  0
VERTEX
  8
0
  5
1EB
 10
7.83508
 20
-5.21402
 30
0.0
  0
VERTEX
  8
0
  5
1EC
 10
7.81383
 20
-5.2116
 30
0.0
  0
VERTEX
  8
0
  5
1ED
 10
7.79353
 20
-5.20059
 30
0.0
  0
VERTEX
  8
0
  5
1EE
 10
7.76345
 20
-5.15501
 30
0.0
  0
VERTEX
  8
0
  5
1EF
 10
7.74383
 20
-5.09632
 30
0.0
  0
VERTEX
  8
0
  5
1F0
 10
7.73239
 20
-5.02626
 30
0.0
  0
VERTEX
  8
0
  5
1F1
 10
7.7269
 20
-4.94664
 30
0.0
  0
VERTEX
  8
0
  5
1F2
 10
7.72507
 20
-4.85917
 30
0.0
  0
VERTEX
  8
0
  5
1F3
 10
7.72467
 20
-4.76568
 30
0.0
  0
VERTEX
  8
0
  5
1F4
 10
7.72343
 20
-4.66791
 30
0.0
  0
VERTEX
  8
0
  5
1F5
 10
7.7191
 20
-4.56765
 30
0.0
  0
VERTEX
  8
0
  5
1F6
 10
7.70939
 20
-4.46664
 30
0.0
  0
VERTEX
  8
0
  5
1F7
 10
7.69208
 20
-4.36668
 30
0.0
  0
VERTEX
  8
0
  5
1F8
 10
7.66489
 20
-4.26954
 30
0.0
  0
VERTEX
  8
0
  5
1F9
 10
7.62559
 20
-4.17699
 30
0.0
  0
VERTEX
  8
0
  5
1FA
 10
7.57187
 20
-4.09078
 30
0.0
  0
VERTEX
  8
0
  5
1FB
 10
7.50153
 20
-4.01272
 30
0.0
  0
VERTEX
  8
0
  5
1FC
 10
7.41227
 20
-3.94455
 30
0.0
  0
VERTEX
  8
0
  5
1FD
 10
7.30186
 20
-3.88806
 30
0.0
  0
VERTEX
  8
0
  5
1FE
 10
6.83058
 20
-3.76822
 30
0.0
  0
VERTEX
  8
0
  5
1FF
 10
6.41091
 20
-3.72054
 30
0.0
  0
VERTEX
  8
0
  5
200
 10
6.04022
 20
-3.7397
 30
0.0
  0
VERTEX
  8
0
  5
201
 10
5.71593
 20
-3.82044
 30
0.0
  0
VERTEX
  8
0
  5
202
 10
5.43542
 20
-3.95744
 30
0.0
  0
VERTEX
  8
0
  5
203
 10
5.19611
 20
-4.14546
 30
0.0
  0
VERTEX
  8
0
  5
204
 10
4.99538
 20
-4.37916
 30
0.0
  0
VERTEX
  8
0
  5
205
 10
4.83066
 20
-4.65331
 30
0.0
  0
VERTEX
  8
0
  5
206
 10
4.69931
 20
-4.96256
 30
0.0
  0
VERTEX
  8
0
  5
207
 10
4.59877
 20
-5.30168
 30
0.0
  0
VERTEX
  8
0
  5
208
 10
4.52642
 20
-5.66535
 30
0.0
  0
VERTEX
  8
0
  5
209
 10
4.47968
 20
-6.0483
 30
0.0
  0
VERTEX
  8
0
  5
20A
 10
4.45592
 20
-6.44522
 30
0.0
  0
VERTEX
  8
0
  5
20B
 10
4.45257
 20
-6.85085
 30
0.0
  0
VERTEX
  8
0
  5
20C
 10
4.46701
 20
-7.25988
 30
0.0
  0
VERTEX
  8
0
  5
20D
 10
4.49667
 20
-7.66706
 30
0.0
  0
VERTEX
  8
0
  5
20E
 10
4.5198
 20
-7.99004
 30
0.0
  0
VERTEX
  8
0
  5
20F
 10
4.52968
 20
-8.30978
 30
0.0
  0
VERTEX
  8
0
  5
210
 10
4.52452
 20
-8.6252
 30
0.0
  0
VERTEX
  8
0
  5
211
 10
4.50253
 20
-8.93525
 30
0.0
  0
VERTEX
  8
0
  5
212
 10
4.46188
 20
-9.23885
 30
0.0
  0
VERTEX
  8
0
  5
213
 10
4.40081
 20
-9.53497
 30
0.0
  0
VERTEX
  8
0
  5
214
 10
4.3175
 20
-9.82251
 30
0.0
  0
VERTEX
  8
0
  5
215
 10
4.21018
 20
-10.10046
 30
0.0
  0
VERTEX
  8
0
  5
216
 10
4.07701
 20
-10.3677
 30
0.0
  0
VERTEX
  8
0
  5
217
 10
3.91623
 20
-10.62321
 30
0.0
  0
VERTEX
  8
0
  5
218
 10
3.72602
 20
-10.86592
 30
0.0
  0
VERTEX
  8
0
  5
219
 10
3.50461
 20
-11.09478
 30
0.0
  0
VERTEX
  8
0
  5
21A
 10
3.25017
 20
-11.3087
 30
0.0
  0
VERTEX
  8
0
  5
21B
 10
2.96094
 20
-11.50664
 30
0.0
  0
VERTEX
  8
0
  5
21C
 10
2.63509
 20
-11.68753
 30
0.0
  0
VERTEX
  8
0
  5
21D
 10
2.27086
 20
-11.85033
 30
0.0
  0
VERTEX
  8
0
  5
21E
 10
2.26251
 20
-11.85108
 30
0.0
  0
VERTEX
  8
0
  5
21F
 10
2.23893
 20
-11.85323
 30
0.0
  0
VERTEX
  8
0
  5
220
 10
2.20229
 20
-11.85656
 30
0.0
  0
VERTEX
  8
0
  5
221
 10
2.15479
 20
-11.86091
 30
0.0
  0
VERTEX
  8
0
  5
222
 10
2.09857
 20
-11.86603
 30
0.0
  0
VERTEX
  8
0
  5
223
 10
2.03583
 20
-11.87176
 30
0.0
  0
VERTEX
  8
0
  5
224
 10
1.96874
 20
-11.87788
 30
0.0
  0
VERTEX
  8
0
  5
225
 10
1.89948
 20
-11.88421
 30
0.0
  0
VERTEX
  8
0
  5
226
 10
1.83019
 20
-11.89051
 30
0.0
  0
VERTEX
  8
0
  5
227
 10
1.7631
 20
-11.89664
 30
0.0
  0
VERTEX
  8
0
  5
228
 10
1.70035
 20
-11.90236
 30
0.0
  0
VERTEX
  8
0
  5
229
 10
1.64415
 20
-11.9075
 30
0.0
  0
VERTEX
  8
0
  5
22A
 10
1.59663
 20
-11.91182
 30
0.0
  0
VERTEX
  8
0
  5
22B
 10
1.56001
 20
-11.91517
 30
0.0
  0
VERTEX
  8
0
  5
22C
 10
1.53643
 20
-11.91732
 30
0.0
  0
VERTEX
  8
0
  5
22D
 10
1.5281
 20
-11.91809
 30
0.0
  0
VERTEX
  8
0
  5
22E
 10
1.50401
 20
-11.91809
 30
0.0
  0
VERTEX
  8
0
  5
22F
 10
1.43594
 20
-11.91809
 30
0.0
  0
VERTEX
  8
0
  5
230
 10
1.33017
 20
-11.91809
 30
0.0
  0
VERTEX
  8
0
  5
231
 10
1.19301
 20
-11.91809
 30
0.0
  0
VERTEX
  8
0
  5
232
 10
1.03069
 20
-11.91809
 30
0.0
  0
VERTEX
  8
0
  5
233
 10
0.84954
 20
-11.91809
 30
0.0
  0
VERTEX
  8
0
  5
234
 10
0.65582
 20
-11.91809
 30
0.0
  0
VERTEX
  8
0
  5
235
 10
0.45583
 20
-11.91809
 30
0.0
  0
VERTEX
  8
0
  5
236
 10
0.25582
 20
-11.91809
 30
0.0
  0
VERTEX
  8
0
  5
237
 10
0.06211
 20
-11.91809
 30
0.0
  0
VERTEX
  8
0
  5
238
 10
-0.11903
 20
-11.91809
 30
0.0
  0
VERTEX
  8
0
  5
239
 10
-0.28135
 20
-11.91809
 30
0.0
  0
VERTEX
  8
0
  5
23A
 10
-0.41851
 20
-11.91809
 30
0.0
  0
VERTEX
  8
0
  5
23B
 10
-0.52428
 20
-11.91809
 30
0.0
  0
VERTEX
  8
0
  5
23C
 10
-0.59235
 20
-11.91809
 30
0.0
  0
VERTEX
  8
0
  5
23D
 10
-0.61644
 20
-11.91809
 30
0.0
  0
VERTEX
  8
0
  5
23E
 10
-0.62477
 20
-11.91732
 30
0.0
  0
VERTEX
  8
0
  5
23F
 10
-0.64835
 20
-11.91517
 30
0.0
  0
VERTEX
  8
0
  5
240
 10
-0.68497
 20
-11.91182
 30
0.0
  0
VERTEX
  8
0
  5
241
 10
-0.73249
 20
-11.9075
 30
0.0
  0
VERTEX
  8
0
  5
242
 10
-0.78869
 20
-11.90236
 30
0.0
  0
VERTEX
  8
0
  5
243
 10
-0.85144
 20
-11.89664
 30
0.0
  0
VERTEX
  8
0
  5
244
 10
-0.91853
 20
-11.89051
 30
0.0
  0
VERTEX
  8
0
  5
245
 10
-0.98782
 20
-11.88421
 30
0.0
  0
VERTEX
  8
0
  5
246
 10
-1.05708
 20
-11.87788
 30
0.0
  0
VERTEX
  8
0
  5
247
 10
-1.12417
 20
-11.87176
 30
0.0
  0
VERTEX
  8
0
  5
248
 10
-1.18691
 20
-11.86603
 30
0.0
  0
VERTEX
  8
0
  5
249
 10
-1.24313
 20
-11.86091
 30
0.0
  0
VERTEX
  8
0
  5
24A
 10
-1.29063
 20
-11.85656
 30
0.0
  0
VERTEX
  8
0
  5
24B
 10
-1.32727
 20
-11.85323
 30
0.0
  0
VERTEX
  8
0
  5
24C
 10
-1.35085
 20
-11.85108
 30
0.0
  0
VERTEX
  8
0
  5
24D
 10
-1.3592
 20
-11.85033
 30
0.0
  0
VERTEX
  8
0
  5
24E
 10
-1.72343
 20
-11.68753
 30
0.0
  0
VERTEX
  8
0
  5
24F
 10
-2.04928
 20
-11.50664
 30
0.0
  0
VERTEX
  8
0
  5
250
 10
-2.33851
 20
-11.3087
 30
0.0
  0
VERTEX
  8
0
  5
251
 10
-2.59295
 20
-11.09478
 30
0.0
  0
VERTEX
  8
0
  5
252
 10
-2.81436
 20
-10.86592
 30
0.0
  0
VERTEX
  8
0
  5
253
 10
-3.00457
 20
-10.62321
 30
0.0
  0
VERTEX
  8
0
  5
254
 10
-3.16535
 20
-10.3677
 30
0.0
  0
VERTEX
  8
0
  5
255
 10
-3.29852
 20
-10.10046
 30
0.0
  0
VERTEX
  8
0
  5
256
 10
-3.40584
 20
-9.82251
 30
0.0
  0
VERTEX
  8
0
  5
257
 10
-3.48915
 20
-9.53497
 30
0.0
  0
VERTEX
  8
0
  5
258
 10
-3.55022
 20
-9.23885
 30
0.0
  0
VERTEX
  8
0
  5
259
 10
-3.59086
 20
-8.93525
 30
0.0
  0
VERTEX
  8
0
  5
25A
 10
-3.61285
 20
-8.6252
 30
0.0
  0
VERTEX
  8
0
  5
25B
 10
-3.61801
 20
-8.30978
 30
0.0
  0
VERTEX
  8
0
  5
25C
 10
-3.60813
 20
-7.99004
 30
0.0
  0
VERTEX
  8
0
  5
25D
 10
-3.585
 20
-7.66706
 30
0.0
  0
VERTEX
  8
0
  5
25E
 10
-3.55534
 20
-7.25988
 30
0.0
  0
VERTEX
  8
0
  5
25F
 10
-3.5409
 20
-6.85085
 30
0.0
  0
VERTEX
  8
0
  5
260
 10
-3.54425
 20
-6.44522
 30
0.0
  0
VERTEX
  8
0
  5
261
 10
-3.56801
 20
-6.0483
 30
0.0
  0
VERTEX
  8
0
  5
262
 10
-3.61475
 20
-5.66535
 30
0.0
  0
VERTEX
  8
0
  5
263
 10
-3.6871
 20
-5.30168
 30
0.0
  0
VERTEX
  8
0
  5
264
 10
-3.78764
 20
-4.96256
 30
0.0
  0
VERTEX
  8
0
  5
265
 10
-3.91899
 20
-4.65331
 30
0.0
  0
VERTEX
  8
0
  5
266
 10
-4.08371
 20
-4.37916
 30
0.0
  0
VERTEX
  8
0
  5
267
 10
-4.28444
 20
-4.14546
 30
0.0
  0
VERTEX
  8
0
  5
268
 10
-4.52375
 20
-3.95744
 30
0.0
  0
VERTEX
  8
0
  5
269
 10
-4.80426
 20
-3.82044
 30
0.0
  0
VERTEX
  8
0
  5
26A
 10
-5.12855
 20
-3.7397
 30
0.0
  0
VERTEX
  8
0
  5
26B
 10
-5.49925
 20
-3.72054
 30
0.0
  0
VERTEX
  8
0
  5
26C
 10
-5.91892
 20
-3.76822
 30
0.0
  0
VERTEX
  8
0
  5
26D
 10
-6.3902
 20
-3.88806
 30
0.0
  0
VERTEX
  8
0
  5
26E
 10
-6.50061
 20
-3.94455
 30
0.0
  0
VERTEX
  8
0
  5
26F
 10
-6.58987
 20
-4.01272
 30
0.0
  0
VERTEX
  8
0
  5
270
 10
-6.66021
 20
-4.09078
 30
0.0
  0
VERTEX
  8
0
  5
271
 10
-6.71393
 20
-4.17699
 30
0.0
  0
VERTEX
  8
0
  5
272
 10
-6.75323
 20
-4.26954
 30
0.0
  0
VERTEX
  8
0
  5
273
 10
-6.78042
 20
-4.36668
 30
0.0
  0
VERTEX
  8
0
  5
274
 10
-6.79773
 20
-4.46664
 30
0.0
  0
VERTEX
  8
0
  5
275
 10
-6.80744
 20
-4.56765
 30
0.0
  0
VERTEX
  8
0
  5
276
 10
-6.81176
 20
-4.66791
 30
0.0
  0
VERTEX
  8
0
  5
277
 10
-6.81301
 20
-4.76568
 30
0.0
  0
VERTEX
  8
0
  5
278
 10
-6.81341
 20
-4.85917
 30
0.0
  0
VERTEX
  8
0
  5
279
 10
-6.81524
 20
-4.94664
 30
0.0
  0
VERTEX
  8
0
  5
27A
 10
-6.82073
 20
-5.02626
 30
0.0
  0
VERTEX
  8
0
  5
27B
 10
-6.83217
 20
-5.09632
 30
0.0
  0
VERTEX
  8
0
  5
27C
 10
-6.85179
 20
-5.15501
 30
0.0
  0
VERTEX
  8
0
  5
27D
 10
-6.88187
 20
-5.20059
 30
0.0
  0
VERTEX
  8
0
  5
27E
 10
-6.90217
 20
-5.2116
 30
0.0
  0
VERTEX
  8
0
  5
27F
 10
-6.92342
 20
-5.21402
 30
0.0
  0
VERTEX
  8
0
  5
280
 10
-6.94565
 20
-5.20861
 30
0.0
  0
VERTEX
  8
0
  5
281
 10
-6.96896
 20
-5.19614
 30
0.0
  0
VERTEX
  8
0
  5
282
 10
-6.99337
 20
-5.17737
 30
0.0
  0
VERTEX
  8
0
  5
283
 10
-7.01896
 20
-5.1531
 30
0.0
  0
VERTEX
  8
0
  5
284
 10
-7.04579
 20
-5.12409
 30
0.0
  0
VERTEX
  8
0
  5
285
 10
-7.07393
 20
-5.09113
 30
0.0
  0
VERTEX
  8
0
  5
286
 10
-7.10341
 20
-5.05494
 30
0.0
  0
VERTEX
  8
0
  5
287
 10
-7.13432
 20
-5.01636
 30
0.0
  0
VERTEX
  8
0
  5
288
 10
-7.16671
 20
-4.97612
 30
0.0
  0
VERTEX
  8
0
  5
289
 10
-7.20067
 20
-4.93501
 30
0.0
  0
VERTEX
  8
0
  5
28A
 10
-7.23621
 20
-4.89379
 30
0.0
  0
VERTEX
  8
0
  5
28B
 10
-7.27344
 20
-4.85325
 30
0.0
  0
VERTEX
  8
0
  5
28C
 10
-7.31239
 20
-4.81414
 30
0.0
  0
VERTEX
  8
0
  5
28D
 10
-7.35314
 20
-4.77728
 30
0.0
  0
VERTEX
  8
0
  5
28E
 10
-7.40438
 20
-4.91195
 30
0.0
  0
VERTEX
  8
0
  5
28F
 10
-7.47623
 20
-5.03256
 30
0.0
  0
VERTEX
  8
0
  5
290
 10
-7.56628
 20
-5.13948
 30
0.0
  0
VERTEX
  8
0
  5
291
 10
-7.67218
 20
-5.23312
 30
0.0
  0
VERTEX
  8
0
  5
292
 10
-7.79154
 20
-5.31385
 30
0.0
  0
VERTEX
  8
0
  5
293
 10
-7.92201
 20
-5.3821
 30
0.0
  0
VERTEX
  8
0
  5
294
 10
-8.0612
 20
-5.43825
 30
0.0
  0
VERTEX
  8
0
  5
295
 10
-8.20677
 20
-5.48271
 30
0.0
  0
VERTEX
  8
0
  5
296
 10
-8.35631
 20
-5.51584
 30
0.0
  0
VERTEX
  8
0
  5
297
 10
-8.50748
 20
-5.53808
 30
0.0
  0
VERTEX
  8
0
  5
298
 10
-8.65789
 20
-5.54979
 30
0.0
  0
VERTEX
  8
0
  5
299
 10
-8.80521
 20
-5.55141
 30
0.0
  0
VERTEX
  8
0
  5
29A
 10
-8.94701
 20
-5.54328
 30
0.0
  0
VERTEX
  8
0
  5
29B
 10
-9.08096
 20
-5.52585
 30
0.0
  0
VERTEX
  8
0
  5
29C
 10
-9.20468
 20
-5.49949
 30
0.0
  0
VERTEX
  8
0
  5
29D
 10
-9.31582
 20
-5.4646
 30
0.0
  0
VERTEX
  8
0
  5
29E
 10
-9.31591
 20
-5.4699
 30
0.0
  0
VERTEX
  8
0
  5
29F
 10
-9.31617
 20
-5.48493
 30
0.0
  0
VERTEX
  8
0
  5
2A0
 10
-9.31658
 20
-5.50826
 30
0.0
  0
VERTEX
  8
0
  5
2A1
 10
-9.31713
 20
-5.53855
 30
0.0
  0
VERTEX
  8
0
  5
2A2
 10
-9.31777
 20
-5.57436
 30
0.0
  0
VERTEX
  8
0
  5
2A3
 10
-9.31849
 20
-5.61434
 30
0.0
  0
VERTEX
  8
0
  5
2A4
 10
-9.31925
 20
-5.6571
 30
0.0
  0
VERTEX
  8
0
  5
2A5
 10
-9.32005
 20
-5.70126
 30
0.0
  0
VERTEX
  8
0
  5
2A6
 10
-9.32083
 20
-5.74539
 30
0.0
  0
VERTEX
  8
0
  5
2A7
 10
-9.3216
 20
-5.78815
 30
0.0
  0
VERTEX
  8
0
  5
2A8
 10
-9.32231
 20
-5.82812
 30
0.0
  0
VERTEX
  8
0
  5
2A9
 10
-9.32296
 20
-5.86395
 30
0.0
  0
VERTEX
  8
0
  5
2AA
 10
-9.3235
 20
-5.89422
 30
0.0
  0
VERTEX
  8
0
  5
2AB
 10
-9.32392
 20
-5.91757
 30
0.0
  0
VERTEX
  8
0
  5
2AC
 10
-9.32418
 20
-5.9326
 30
0.0
  0
VERTEX
  8
0
  5
2AD
 10
-9.32429
 20
-5.93792
 30
0.0
  0
VERTEX
  8
0
  5
2AE
 10
-9.34779
 20
-5.94953
 30
0.0
  0
VERTEX
  8
0
  5
2AF
 10
-9.37184
 20
-5.94558
 30
0.0
  0
VERTEX
  8
0
  5
2B0
 10
-9.39628
 20
-5.92843
 30
0.0
  0
VERTEX
  8
0
  5
2B1
 10
-9.42101
 20
-5.90049
 30
0.0
  0
VERTEX
  8
0
  5
2B2
 10
-9.44586
 20
-5.8641
 30
0.0
  0
VERTEX
  8
0
  5
2B3
 10
-9.47072
 20
-5.82168
 30
0.0
  0
VERTEX
  8
0
  5
2B4
 10
-9.49545
 20
-5.77558
 30
0.0
  0
VERTEX
  8
0
  5
2B5
 10
-9.51992
 20
-5.72822
 30
0.0
  0
VERTEX
  8
0
  5
2B6
 10
-9.54396
 20
-5.68193
 30
0.0
  0
VERTEX
  8
0
  5
2B7
 10
-9.56747
 20
-5.63913
 30
0.0
  0
VERTEX
  8
0
  5
2B8
 10
-9.59029
 20
-5.60219
 30
0.0
  0
VERTEX
  8
0
  5
2B9
 10
-9.61232
 20
-5.5735
 30
0.0
  0
VERTEX
  8
0
  5
2BA
 10
-9.63339
 20
-5.55542
 30
0.0
  0
VERTEX
  8
0
  5
2BB
 10
-9.65338
 20
-5.55037
 30
0.0
  0
VERTEX
  8
0
  5
2BC
 10
-9.67215
 20
-5.56069
 30
0.0
  0
VERTEX
  8
0
  5
2BD
 10
-9.68959
 20
-5.5888
 30
0.0
  0
VERTEX
  8
0
  5
2BE
 10
-9.81265
 20
-5.78462
 30
0.0
  0
VERTEX
  8
0
  5
2BF
 10
-9.97922
 20
-5.92833
 30
0.0
  0
VERTEX
  8
0
  5
2C0
 10
-10.18123
 20
-6.0234
 30
0.0
  0
VERTEX
  8
0
  5
2C1
 10
-10.41062
 20
-6.07335
 30
0.0
  0
VERTEX
  8
0
  5
2C2
 10
-10.65932
 20
-6.08164
 30
0.0
  0
VERTEX
  8
0
  5
2C3
 10
-10.9193
 20
-6.05182
 30
0.0
  0
VERTEX
  8
0
  5
2C4
 10
-11.18249
 20
-5.98736
 30
0.0
  0
VERTEX
  8
0
  5
2C5
 10
-11.44083
 20
-5.89178
 30
0.0
  0
VERTEX
  8
0
  5
2C6
 10
-11.68624
 20
-5.76854
 30
0.0
  0
VERTEX
  8
0
  5
2C7
 10
-11.91071
 20
-5.62119
 30
0.0
  0
VERTEX
  8
0
  5
2C8
 10
-12.10614
 20
-5.4532
 30
0.0
  0
VERTEX
  8
0
  5
2C9
 10
-12.26452
 20
-5.2681
 30
0.0
  0
VERTEX
  8
0
  5
2CA
 10
-12.37775
 20
-5.06935
 30
0.0
  0
VERTEX
  8
0
  5
2CB
 10
-12.43779
 20
-4.86049
 30
0.0
  0
VERTEX
  8
0
  5
2CC
 10
-12.43657
 20
-4.64499
 30
0.0
  0
VERTEX
  8
0
  5
2CD
 10
-12.36607
 20
-4.42638
 30
0.0
  0
VERTEX
  8
0
  5
2CE
 10
-12.26123
 20
-4.24245
 30
0.0
  0
VERTEX
  8
0
  5
2CF
 10
-12.14844
 20
-4.09614
 30
0.0
  0
VERTEX
  8
0
  5
2D0
 10
-12.02958
 20
-3.98504
 30
0.0
  0
VERTEX
  8
0
  5
2D1
 10
-11.90655
 20
-3.9068
 30
0.0
  0
VERTEX
  8
0
  5
2D2
 10
-11.78119
 20
-3.859
 30
0.0
  0
VERTEX
  8
0
  5
2D3
 10
-11.65544
 20
-3.83931
 30
0.0
  0
VERTEX
  8
0
  5
2D4
 10
-11.53116
 20
-3.84531
 30
0.0
  0
VERTEX
  8
0
  5
2D5
 10
-11.41024
 20
-3.87465
 30
0.0
  0
VERTEX
  8
0
  5
2D6
 10
-11.29455
 20
-3.92492
 30
0.0
  0
VERTEX
  8
0
  5
2D7
 10
-11.18599
 20
-3.99376
 30
0.0
  0
VERTEX
  8
0
  5
2D8
 10
-11.08645
 20
-4.07878
 30
0.0
  0
VERTEX
  8
0
  5
2D9
 10
-10.99783
 20
-4.17763
 30
0.0
  0
VERTEX
  8
0
  5
2DA
 10
-10.92198
 20
-4.28789
 30
0.0
  0
VERTEX
  8
0
  5
2DB
 10
-10.86082
 20
-4.40721
 30
0.0
  0
VERTEX
  8
0
  5
2DC
 10
-10.81622
 20
-4.5332
 30
0.0
  0
VERTEX
  8
0
  5
2DD
 10
-10.79007
 20
-4.66349
 30
0.0
  0
VERTEX
  8
0
  5
2DE
 10
-10.57656
 20
-4.58281
 30
0.0
  0
VERTEX
  8
0
  5
2DF
 10
-10.39985
 20
-4.50099
 30
0.0
  0
VERTEX
  8
0
  5
2E0
 10
-10.25592
 20
-4.41817
 30
0.0
  0
VERTEX
  8
0
  5
2E1
 10
-10.14082
 20
-4.33448
 30
0.0
  0
VERTEX
  8
0
  5
2E2
 10
-10.05055
 20
-4.25001
 30
0.0
  0
VERTEX
  8
0
  5
2E3
 10
-9.98118
 20
-4.16494
 30
0.0
  0
VERTEX
  8
0
  5
2E4
 10
-9.92869
 20
-4.07937
 30
0.0
  0
VERTEX
  8
0
  5
2E5
 10
-9.88913
 20
-3.99345
 30
0.0
  0
VERTEX
  8
0
  5
2E6
 10
-9.8585
 20
-3.90727
 30
0.0
  0
VERTEX
  8
0
  5
2E7
 10
-9.83285
 20
-3.82099
 30
0.0
  0
VERTEX
  8
0
  5
2E8
 10
-9.80818
 20
-3.73474
 30
0.0
  0
VERTEX
  8
0
  5
2E9
 10
-9.78054
 20
-3.64865
 30
0.0
  0
VERTEX
  8
0
  5
2EA
 10
-9.74593
 20
-3.56282
 30
0.0
  0
VERTEX
  8
0
  5
2EB
 10
-9.70041
 20
-3.47743
 30
0.0
  0
VERTEX
  8
0
  5
2EC
 10
-9.63997
 20
-3.39256
 30
0.0
  0
VERTEX
  8
0
  5
2ED
 10
-9.56065
 20
-3.30837
 30
0.0
  0
VERTEX
  8
0
  5
2EE
 10
-9.53125
 20
-3.28551
 30
0.0
  0
VERTEX
  8
0
  5
2EF
 10
-9.50292
 20
-3.27233
 30
0.0
  0
VERTEX
  8
0
  5
2F0
 10
-9.47516
 20
-3.26782
 30
0.0
  0
VERTEX
  8
0
  5
2F1
 10
-9.44753
 20
-3.27105
 30
0.0
  0
VERTEX
  8
0
  5
2F2
 10
-9.41949
 20
-3.28103
 30
0.0
  0
VERTEX
  8
0
  5
2F3
 10
-9.39062
 20
-3.29685
 30
0.0
  0
VERTEX
  8
0
  5
2F4
 10
-9.3604
 20
-3.31751
 30
0.0
  0
VERTEX
  8
0
  5
2F5
 10
-9.32839
 20
-3.3421
 30
0.0
  0
VERTEX
  8
0
  5
2F6
 10
-9.29405
 20
-3.3696
 30
0.0
  0
VERTEX
  8
0
  5
2F7
 10
-9.25697
 20
-3.3991
 30
0.0
  0
VERTEX
  8
0
  5
2F8
 10
-9.21663
 20
-3.42962
 30
0.0
  0
VERTEX
  8
0
  5
2F9
 10
-9.17257
 20
-3.46021
 30
0.0
  0
VERTEX
  8
0
  5
2FA
 10
-9.12428
 20
-3.4899
 30
0.0
  0
VERTEX
  8
0
  5
2FB
 10
-9.07134
 20
-3.51776
 30
0.0
  0
VERTEX
  8
0
  5
2FC
 10
-9.01322
 20
-3.54282
 30
0.0
  0
VERTEX
  8
0
  5
2FD
 10
-8.94948
 20
-3.56412
 30
0.0
  0
VERTEX
  8
0
  5
2FE
 10
-8.93417
 20
-3.41761
 30
0.0
  0
VERTEX
  8
0
  5
2FF
 10
-8.89937
 20
-3.29436
 30
0.0
  0
VERTEX
  8
0
  5
300
 10
-8.84738
 20
-3.19291
 30
0.0
  0
VERTEX
  8
0
  5
301
 10
-8.78052
 20
-3.11188
 30
0.0
  0
VERTEX
  8
0
  5
302
 10
-8.70106
 20
-3.04978
 30
0.0
  0
VERTEX
  8
0
  5
303
 10
-8.61134
 20
-3.00523
 30
0.0
  0
VERTEX
  8
0
  5
304
 10
-8.51366
 20
-2.97678
 30
0.0
  0
VERTEX
  8
0
  5
305
 10
-8.41033
 20
-2.96301
 30
0.0
  0
VERTEX
  8
0
  5
306
 10
-8.30363
 20
-2.96247
 30
0.0
  0
VERTEX
  8
0
  5
307
 10
-8.19591
 20
-2.97376
 30
0.0
  0
VERTEX
  8
0
  5
308
 10
-8.08945
 20
-2.99543
 30
0.0
  0
VERTEX
  8
0
  5
309
 10
-7.98658
 20
-3.02607
 30
0.0
  0
VERTEX
  8
0
  5
30A
 10
-7.88956
 20
-3.06423
 30
0.0
  0
VERTEX
  8
0
  5
30B
 10
-7.80075
 20
-3.10851
 30
0.0
  0
VERTEX
  8
0
  5
30C
 10
-7.72243
 20
-3.15746
 30
0.0
  0
VERTEX
  8
0
  5
30D
 10
-7.65693
 20
-3.20967
 30
0.0
  0
VERTEX
  8
0
  5
30E
 10
-7.61757
 20
-3.02241
 30
0.0
  0
VERTEX
  8
0
  5
30F
 10
-7.57596
 20
-2.88248
 30
0.0
  0
VERTEX
  8
0
  5
310
 10
-7.53266
 20
-2.78491
 30
0.0
  0
VERTEX
  8
0
  5
311
 10
-7.48829
 20
-2.72481
 30
0.0
  0
VERTEX
  8
0
  5
312
 10
-7.4434
 20
-2.6972
 30
0.0
  0
VERTEX
  8
0
  5
313
 10
-7.39863
 20
-2.69718
 30
0.0
  0
VERTEX
  8
0
  5
314
 10
-7.35454
 20
-2.71981
 30
0.0
  0
VERTEX
  8
0
  5
315
 10
-7.31173
 20
-2.76016
 30
0.0
  0
VERTEX
  8
0
  5
316
 10
-7.27076
 20
-2.81327
 30
0.0
  0
VERTEX
  8
0
  5
317
 10
-7.23227
 20
-2.87424
 30
0.0
  0
VERTEX
  8
0
  5
318
 10
-7.19681
 20
-2.93811
 30
0.0
  0
VERTEX
  8
0
  5
319
 10
-7.16501
 20
-2.99998
 30
0.0
  0
VERTEX
  8
0
  5
31A
 10
-7.13741
 20
-3.05487
 30
0.0
  0
VERTEX
  8
0
  5
31B
 10
-7.11465
 20
-3.0979
 30
0.0
  0
VERTEX
  8
0
  5
31C
 10
-7.09729
 20
-3.12409
 30
0.0
  0
VERTEX
  8
0
  5
31D
 10
-7.08593
 20
-3.12855
 30
0.0
  0
VERTEX
  8
0
  5
31E
 10
-6.99253
 20
-3.04589
 30
0.0
  0
VERTEX
  8
0
  5
31F
 10
-6.87831
 20
-2.9632
 30
0.0
  0
VERTEX
  8
0
  5
320
 10
-6.74448
 20
-2.88314
 30
0.0
  0
VERTEX
  8
0
  5
321
 10
-6.59226
 20
-2.80839
 30
0.0
  0
VERTEX
  8
0
  5
322
 10
-6.42283
 20
-2.74159
 30
0.0
  0
VERTEX
  8
0
  5
323
 10
-6.23744
 20
-2.68544
 30
0.0
  0
VERTEX
  8
0
  5
324
 10
-6.03726
 20
-2.64259
 30
0.0
  0
VERTEX
  8
0
  5
325
 10
-5.82353
 20
-2.61573
 30
0.0
  0
VERTEX
  8
0
  5
326
 10
-5.59743
 20
-2.60749
 30
0.0
  0
VERTEX
  8
0
  5
327
 10
-5.36019
 20
-2.62057
 30
0.0
  0
VERTEX
  8
0
  5
328
 10
-5.11302
 20
-2.65762
 30
0.0
  0
VERTEX
  8
0
  5
329
 10
-4.85714
 20
-2.72134
 30
0.0
  0
VERTEX
  8
0
  5
32A
 10
-4.59373
 20
-2.81436
 30
0.0
  0
VERTEX
  8
0
  5
32B
 10
-4.32403
 20
-2.93937
 30
0.0
  0
VERTEX
  8
0
  5
32C
 10
-4.04922
 20
-3.09903
 30
0.0
  0
VERTEX
  8
0
  5
32D
 10
-3.77055
 20
-3.29603
 30
0.0
  0
VERTEX
  8
0
  5
32E
 10
-3.39923
 20
-3.64643
 30
0.0
  0
VERTEX
  8
0
  5
32F
 10
-3.10825
 20
-4.05017
 30
0.0
  0
VERTEX
  8
0
  5
330
 10
-2.88753
 20
-4.49761
 30
0.0
  0
VERTEX
  8
0
  5
331
 10
-2.72705
 20
-4.97912
 30
0.0
  0
VERTEX
  8
0
  5
332
 10
-2.61673
 20
-5.48506
 30
0.0
  0
VERTEX
  8
0
  5
333
 10
-2.54655
 20
-6.00583
 30
0.0
  0
VERTEX
  8
0
  5
334
 10
-2.50643
 20
-6.53176
 30
0.0
  0
VERTEX
  8
0
  5
335
 10
-2.48634
 20
-7.05326
 30
0.0
  0
VERTEX
  8
0
  5
336
 10
-2.4762
 20
-7.56066
 30
0.0
  0
VERTEX
  8
0
  5
337
 10
-2.46599
 20
-8.04436
 30
0.0
  0
VERTEX
  8
0
  5
338
 10
-2.44563
 20
-8.49471
 30
0.0
  0
VERTEX
  8
0
  5
339
 10
-2.40511
 20
-8.9021
 30
0.0
  0
VERTEX
  8
0
  5
33A
 10
-2.33434
 20
-9.25688
 30
0.0
  0
VERTEX
  8
0
  5
33B
 10
-2.22329
 20
-9.54944
 30
0.0
  0
VERTEX
  8
0
  5
33C
 10
-2.06189
 20
-9.77014
 30
0.0
  0
VERTEX
  8
0
  5
33D
 10
-1.84013
 20
-9.90936
 30
0.0
  0
VERTEX
  8
0
  5
33E
 10
-1.8283
 20
-9.91165
 30
0.0
  0
VERTEX
  8
0
  5
33F
 10
-1.81131
 20
-9.91188
 30
0.0
  0
VERTEX
  8
0
  5
340
 10
-1.78989
 20
-9.91004
 30
0.0
  0
VERTEX
  8
0
  5
341
 10
-1.76484
 20
-9.90615
 30
0.0
  0
VERTEX
  8
0
  5
342
 10
-1.7369
 20
-9.90018
 30
0.0
  0
VERTEX
  8
0
  5
343
 10
-1.70688
 20
-9.89216
 30
0.0
  0
VERTEX
  8
0
  5
344
 10
-1.67551
 20
-9.88207
 30
0.0
  0
VERTEX
  8
0
  5
345
 10
-1.6436
 20
-9.86994
 30
0.0
  0
VERTEX
  8
0
  5
346
 10
-1.61186
 20
-9.85573
 30
0.0
  0
VERTEX
  8
0
  5
347
 10
-1.58112
 20
-9.83949
 30
0.0
  0
VERTEX
  8
0
  5
348
 10
-1.55212
 20
-9.82119
 30
0.0
  0
VERTEX
  8
0
  5
349
 10
-1.52564
 20
-9.80086
 30
0.0
  0
VERTEX
  8
0
  5
34A
 10
-1.50243
 20
-9.77847
 30
0.0
  0
VERTEX
  8
0
  5
34B
 10
-1.48329
 20
-9.75405
 30
0.0
  0
VERTEX
  8
0
  5
34C
 10
-1.46898
 20
-9.72759
 30
0.0
  0
VERTEX
  8
0
  5
34D
 10
-1.46026
 20
-9.6991
 30
0.0
  0
VERTEX
  8
0
  5
34E
 10
-1.44161
 20
-9.58444
 30
0.0
  0
VERTEX
  8
0
  5
34F
 10
-1.42422
 20
-9.45354
 30
0.0
  0
VERTEX
  8
0
  5
350
 10
-1.40505
 20
-9.30968
 30
0.0
  0
VERTEX
  8
0
  5
351
 10
-1.38112
 20
-9.15617
 30
0.0
  0
VERTEX
  8
0
  5
352
 10
-1.34939
 20
-8.99626
 30
0.0
  0
VERTEX
  8
0
  5
353
 10
-1.30688
 20
-8.83327
 30
0.0
  0
VERTEX
  8
0
  5
354
 10
-1.25055
 20
-8.67047
 30
0.0
  0
VERTEX
  8
0
  5
355
 10
-1.17742
 20
-8.51117
 30
0.0
  0
VERTEX
  8
0
  5
356
 10
-1.08444
 20
-8.35862
 30
0.0
  0
VERTEX
  8
0
  5
357
 10
-0.96863
 20
-8.21615
 30
0.0
  0
VERTEX
  8
0
  5
358
 10
-0.82696
 20
-8.08702
 30
0.0
  0
VERTEX
  8
0
  5
359
 10
-0.65645
 20
-7.97454
 30
0.0
  0
VERTEX
  8
0
  5
35A
 10
-0.45405
 20
-7.88197
 30
0.0
  0
VERTEX
  8
0
  5
35B
 10
-0.2168
 20
-7.81263
 30
0.0
  0
VERTEX
  8
0
  5
35C
 10
0.05835
 20
-7.76978
 30
0.0
  0
SEQEND
  8
0
  5
35D
  0
POLYLINE
  8
0
  5
35E
 66
     1
 10
0.0
 20
0.0
 30
0.0
  0
VERTEX
  8
0
  5
35F
 10
9.09109
 20
-3.706
 30
0.0
  0
VERTEX
  8
0
  5
360
 10
9.09109
 20
-3.706
 30
0.0
  0
VERTEX
  8
0
  5
361
 10
9.06034
 20
-3.70754
 30
0.0
  0
VERTEX
  8
0
  5
362
 10
9.03048
 20
-3.7121
 30
0.0
  0
VERTEX
  8
0
  5
363
 10
9.00165
 20
-3.71951
 30
0.0
  0
VERTEX
  8
0
  5
364
 10
8.97403
 20
-3.72963
 30
0.0
  0
VERTEX
  8
0
  5
365
 10
8.94774
 20
-3.74229
 30
0.0
  0
VERTEX
  8
0
  5
366
 10
8.92295
 20
-3.75735
 30
0.0
  0
VERTEX
  8
0
  5
367
 10
8.89979
 20
-3.77466
 30
0.0
  0
VERTEX
  8
0
  5
368
 10
8.87845
 20
-3.79408
 30
0.0
  0
VERTEX
  8
0
  5
369
 10
8.85903
 20
-3.81542
 30
0.0
  0
VERTEX
  8
0
  5
36A
 10
8.84172
 20
-3.83858
 30
0.0
  0
VERTEX
  8
0
  5
36B
 10
8.82666
 20
-3.86337
 30
0.0
  0
VERTEX
  8
0
  5
36C
 10
8.814
 20
-3.88966
 30
0.0
  0
VERTEX
  8
0
  5
36D
 10
8.80388
 20
-3.91728
 30
0.0
  0
VERTEX
  8
0
  5
36E
 10
8.79647
 20
-3.94611
 30
0.0
  0
VERTEX
  8
0
  5
36F
 10
8.79191
 20
-3.97597
 30
0.0
  0
VERTEX
  8
0
  5
370
 10
8.79037
 20
-4.00672
 30
0.0
  0
VERTEX
  8
0
  5
371
 10
8.79191
 20
-4.03745
 30
0.0
  0
VERTEX
  8
0
  5
372
 10
8.79647
 20
-4.06731
 30
0.0
  0
VERTEX
  8
0
  5
373
 10
8.80388
 20
-4.09613
 30
0.0
  0
VERTEX
  8
0
  5
374
 10
8.814
 20
-4.12377
 30
0.0
  0
VERTEX
  8
0
  5
375
 10
8.82666
 20
-4.15005
 30
0.0
  0
VERTEX
  8
0
  5
376
 10
8.84172
 20
-4.17485
 30
0.0
  0
VERTEX
  8
0
  5
377
 10
8.85903
 20
-4.19799
 30
0.0
  0
VERTEX
  8
0
  5
378
 10
8.87845
 20
-4.21936
 30
0.0
  0
VERTEX
  8
0
  5
379
 10
8.89979
 20
-4.23876
 30
0.0
  0
VERTEX
  8
0
  5
37A
 10
8.92295
 20
-4.25607
 30
0.0
  0
VERTEX
  8
0
  5
37B
 10
8.94774
 20
-4.27113
 30
0.0
  0
VERTEX
  8
0
  5
37C
 10
8.97403
 20
-4.2838
 30
0.0
  0
VERTEX
  8
0
  5
37D
 10
9.00165
 20
-4.29391
 30
0.0
  0
VERTEX
  8
0
  5
37E
 10
9.03048
 20
-4.30132
 30
0.0
  0
VERTEX
  8
0
  5
37F
 10
9.06034
 20
-4.30588
 30
0.0
  0
VERTEX
  8
0
  5
380
 10
9.09109
 20
-4.30744
 30
0.0
  0
VERTEX
  8
0
  5
381
 10
9.12182
 20
-4.30588
 30
0.0
  0
VERTEX
  8
0
  5
382
 10
9.15168
 20
-4.30132
 30
0.0
  0
VERTEX
  8
0
  5
383
 10
9.1805
 20
-4.29391
 30
0.0
  0
VERTEX
  8
0
  5
384
 10
9.20814
 20
-4.2838
 30
0.0
  0
VERTEX
  8
0
  5
385
 10
9.23442
 20
-4.27113
 30
0.0
  0
VERTEX
  8
0
  5
386
 10
9.25922
 20
-4.25607
 30
0.0
  0
VERTEX
  8
0
  5
387
 10
9.28236
 20
-4.23876
 30
0.0
  0
VERTEX
  8
0
  5
388
 10
9.30373
 20
-4.21936
 30
0.0
  0
VERTEX
  8
0
  5
389
 10
9.32313
 20
-4.19799
 30
0.0
  0
VERTEX
  8
0
  5
38A
 10
9.34044
 20
-4.17485
 30
0.0
  0
VERTEX
  8
0
  5
38B
 10
9.3555
 20
-4.15005
 30
0.0
  0
VERTEX
  8
0
  5
38C
 10
9.36817
 20
-4.12377
 30
0.0
  0
VERTEX
  8
0
  5
38D
 10
9.37828
 20
-4.09613
 30
0.0
  0
VERTEX
  8
0
  5
38E
 10
9.38569
 20
-4.06731
 30
0.0
  0
VERTEX
  8
0
  5
38F
 10
9.39025
 20
-4.03745
 30
0.0
  0
VERTEX
  8
0
  5
390
 10
9.39181
 20
-4.00672
 30
0.0
  0
VERTEX
  8
0
  5
391
 10
9.39025
 20
-3.97597
 30
0.0
  0
VERTEX
  8
0
  5
392
 10
9.38569
 20
-3.94611
 30
0.0
  0
VERTEX
  8
0
  5
393
 10
9.37828
 20
-3.91728
 30
0.0
  0
VERTEX
  8
0
  5
394
 10
9.36817
 20
-3.88966
 30
0.0
  0
VERTEX
  8
0
  5
395
 10
9.3555
 20
-3.86337
 30
0.0
  0
VERTEX
  8
0
  5
396
 10
9.34044
 20
-3.83858
 30
0.0
  0
VERTEX
  8
0
  5
397
 10
9.32313
 20
-3.81542
 30
0.0
  0
VERTEX
  8
0
  5
398
 10
9.30373
 20
-3.79408
 30
0.0
  0
VERTEX
  8
0
  5
399
 10
9.28236
 20
-3.77466
 30
0.0
  0
VERTEX
  8
0
  5
39A
 10
9.25922
 20
-3.75735
 30
0.0
  0
VERTEX
  8
0
  5
39B
 10
9.23442
 20
-3.74229
 30
0.0
  0
VERTEX
  8
0
  5
39C
 10
9.20814
 20
-3.72963
 30
0.0
  0
VERTEX
  8
0
  5
39D
 10
9.1805
 20
-3.71951
 30
0.0
  0
VERTEX
  8
0
  5
39E
 10
9.15168
 20
-3.7121
 30
0.0
  0
VERTEX
  8
0
  5
39F
 10
9.12182
 20
-3.70754
 30
0.0
  0
SEQEND
  8
0
  5
3A0
  0
POLYLINE
  8
0
  5
3A1
 66
     1
 10
0.0
 20
0.0
 30
0.0
  0
VERTEX
  8
0
  5
3A2
 10
0.36647
 20
-8.77081
 30
0.0
  0
VERTEX
  8
0
  5
3A3
 10
0.36647
 20
-8.77081
 30
0.0
  0
VERTEX
  8
0
  5
3A4
 10
0.40809
 20
-8.77291
 30
0.0
  0
VERTEX
  8
0
  5
3A5
 10
0.44854
 20
-8.77912
 30
0.0
  0
VERTEX
  8
0
  5
3A6
 10
0.4876
 20
-8.7892
 30
0.0
  0
VERTEX
  8
0
  5
3A7
 10
0.52508
 20
-8.80297
 30
0.0
  0
VERTEX
  8
0
  5
3A8
 10
0.56074
 20
-8.82018
 30
0.0
  0
VERTEX
  8
0
  5
3A9
 10
0.5944
 20
-8.84067
 30
0.0
  0
VERTEX
  8
0
  5
3AA
 10
0.62584
 20
-8.8642
 30
0.0
  0
VERTEX
  8
0
  5
3AB
 10
0.65486
 20
-8.89059
 30
0.0
  0
VERTEX
  8
0
  5
3AC
 10
0.68122
 20
-8.91959
 30
0.0
  0
VERTEX
  8
0
  5
3AD
 10
0.70476
 20
-8.95103
 30
0.0
  0
VERTEX
  8
0
  5
3AE
 10
0.72524
 20
-8.98469
 30
0.0
  0
VERTEX
  8
0
  5
3AF
 10
0.74248
 20
-9.02036
 30
0.0
  0
VERTEX
  8
0
  5
3B0
 10
0.75623
 20
-9.05782
 30
0.0
  0
VERTEX
  8
0
  5
3B1
 10
0.76633
 20
-9.0969
 30
0.0
  0
VERTEX
  8
0
  5
3B2
 10
0.77254
 20
-9.13735
 30
0.0
  0
VERTEX
  8
0
  5
3B3
 10
0.77466
 20
-9.179
 30
0.0
  0
VERTEX
  8
0
  5
3B4
 10
0.77254
 20
-9.22062
 30
0.0
  0
VERTEX
  8
0
  5
3B5
 10
0.76633
 20
-9.26107
 30
0.0
  0
VERTEX
  8
0
  5
3B6
 10
0.75623
 20
-9.30013
 30
0.0
  0
VERTEX
  8
0
  5
3B7
 10
0.74248
 20
-9.33761
 30
0.0
  0
VERTEX
  8
0
  5
3B8
 10
0.72524
 20
-9.37327
 30
0.0
  0
VERTEX
  8
0
  5
3B9
 10
0.70476
 20
-9.40693
 30
0.0
  0
VERTEX
  8
0
  5
3BA
 10
0.68122
 20
-9.43836
 30
0.0
  0
VERTEX
  8
0
  5
3BB
 10
0.65486
 20
-9.46738
 30
0.0
  0
VERTEX
  8
0
  5
3BC
 10
0.62584
 20
-9.49374
 30
0.0
  0
VERTEX
  8
0
  5
3BD
 10
0.5944
 20
-9.51728
 30
0.0
  0
VERTEX
  8
0
  5
3BE
 10
0.56074
 20
-9.53776
 30
0.0
  0
VERTEX
  8
0
  5
3BF
 10
0.52508
 20
-9.555
 30
0.0
  0
VERTEX
  8
0
  5
3C0
 10
0.4876
 20
-9.56875
 30
0.0
  0
VERTEX
  8
0
  5
3C1
 10
0.44854
 20
-9.57885
 30
0.0
  0
VERTEX
  8
0
  5
3C2
 10
0.40809
 20
-9.58506
 30
0.0
  0
VERTEX
  8
0
  5
3C3
 10
0.36647
 20
-9.58718
 30
0.0
  0
VERTEX
  8
0
  5
3C4
 10
0.32482
 20
-9.58506
 30
0.0
  0
VERTEX
  8
0
  5
3C5
 10
0.28437
 20
-9.57885
 30
0.0
  0
VERTEX
  8
0
  5
3C6
 10
0.2453
 20
-9.56875
 30
0.0
  0
VERTEX
  8
0
  5
3C7
 10
0.20784
 20
-9.555
 30
0.0
  0
VERTEX
  8
0
  5
3C8
 10
0.17217
 20
-9.53776
 30
0.0
  0
VERTEX
  8
0
  5
3C9
 10
0.13852
 20
-9.51728
 30
0.0
  0
VERTEX
  8
0
  5
3CA
 10
0.10708
 20
-9.49374
 30
0.0
  0
VERTEX
  8
0
  5
3CB
 10
0.07808
 20
-9.46738
 30
0.0
  0
VERTEX
  8
0
  5
3CC
 10
0.05169
 20
-9.43836
 30
0.0
  0
VERTEX
  8
0
  5
3CD
 10
0.02816
 20
-9.40693
 30
0.0
  0
VERTEX
  8
0
  5
3CE
 10
0.00768
 20
-9.37327
 30
0.0
  0
VERTEX
  8
0
  5
3CF
 10
-0.00954
 20
-9.33761
 30
0.0
  0
VERTEX
  8
0
  5
3D0
 10
-0.02329
 20
-9.30013
 30
0.0
  0
VERTEX
  8
0
  5
3D1
 10
-0.03338
 20
-9.26107
 30
0.0
  0
VERTEX
  8
0
  5
3D2
 10
-0.03958
 20
-9.22062
 30
0.0
  0
VERTEX
  8
0
  5
3D3
 10
-0.0417
 20
-9.179
 30
0.0
  0
VERTEX
  8
0
  5
3D4
 10
-0.03958
 20
-9.13735
 30
0.0
  0
VERTEX
  8
0
  5
3D5
 10
-0.03338
 20
-9.0969
 30
0.0
  0
VERTEX
  8
0
  5
3D6
 10
-0.02329
 20
-9.05782
 30
0.0
  0
VERTEX
  8
0
  5
3D7
 10
-0.00954
 20
-9.02036
 30
0.0
  0
VERTEX
  8
0
  5
3D8
 10
0.00768
 20
-8.98469
 30
0.0
  0
VERTEX
  8
0
  5
3D9
 10
0.02816
 20
-8.95103
 30
0.0
  0
VERTEX
  8
0
  5
3DA
 10
0.05169
 20
-8.91959
 30
0.0
  0
VERTEX
  8
0
  5
3DB
 10
0.07808
 20
-8.89059
 30
0.0
  0
VERTEX
  8
0
  5
3DC
 10
0.10708
 20
-8.8642
 30
0.0
  0
VERTEX
  8
0
  5
3DD
 10
0.13852
 20
-8.84067
 30
0.0
  0
VERTEX
  8
0
  5
3DE
 10
0.17217
 20
-8.82018
 30
0.0
  0
VERTEX
  8
0
  5
3DF
 10
0.20784
 20
-8.80297
 30
0.0
  0
VERTEX
  8
0
  5
3E0
 10
0.2453
 20
-8.7892
 30
0.0
  0
VERTEX
  8
0
  5
3E1
 10
0.28437
 20
-8.77912
 30
0.0
  0
VERTEX
  8
0
  5
3E2
 10
0.32482
 20
-8.77291
 30
0.0
  0
SEQEND
  8
0
  5
3E3
  0
POLYLINE
  8
0
  5
3E4
 66
     1
 10
0.0
 20
0.0
 30
0.0
  0
VERTEX
  8
0
  5
3E5
 10
-11.47176
 20
-2.75651
 30
0.0
  0
VERTEX
  8
0
  5
3E6
 10
-11.47176
 20
-2.75651
 30
0.0
  0
VERTEX
  8
0
  5
3E7
 10
-11.52151
 20
-2.92162
 30
0.0
  0
VERTEX
  8
0
  5
3E8
 10
-11.58347
 20
-3.06346
 30
0.0
  0
VERTEX
  8
0
  5
3E9
 10
-11.65562
 20
-3.18215
 30
0.0
  0
VERTEX
  8
0
  5
3EA
 10
-11.73599
 20
-3.27785
 30
0.0
  0
VERTEX
  8
0
  5
3EB
 10
-11.82254
 20
-3.35068
 30
0.0
  0
VERTEX
  8
0
  5
3EC
 10
-11.91331
 20
-3.4008
 30
0.0
  0
VERTEX
  8
0
  5
3ED
 10
-12.00626
 20
-3.42834
 30
0.0
  0
VERTEX
  8
0
  5
3EE
 10
-12.09942
 20
-3.43347
 30
0.0
  0
VERTEX
  8
0
  5
3EF
 10
-12.19074
 20
-3.41629
 30
0.0
  0
VERTEX
  8
0
  5
3F0
 10
-12.27828
 20
-3.37698
 30
0.0
  0
VERTEX
  8
0
  5
3F1
 10
-12.36
 20
-3.31566
 30
0.0
  0
VERTEX
  8
0
  5
3F2
 10
-12.43392
 20
-3.23249
 30
0.0
  0
VERTEX
  8
0
  5
3F3
 10
-12.49801
 20
-3.1276
 30
0.0
  0
VERTEX
  8
0
  5
3F4
 10
-12.5503
 20
-3.00114
 30
0.0
  0
VERTEX
  8
0
  5
3F5
 10
-12.58877
 20
-2.85325
 30
0.0
  0
VERTEX
  8
0
  5
3F6
 10
-12.61144
 20
-2.68409
 30
0.0
  0
VERTEX
  8
0
  5
3F7
 10
-12.7499
 20
-2.7904
 30
0.0
  0
VERTEX
  8
0
  5
3F8
 10
-12.88417
 20
-2.87076
 30
0.0
  0
VERTEX
  8
0
  5
3F9
 10
-13.01273
 20
-2.92645
 30
0.0
  0
VERTEX
  8
0
  5
3FA
 10
-13.1341
 20
-2.95879
 30
0.0
  0
VERTEX
  8
0
  5
3FB
 10
-13.24677
 20
-2.96902
 30
0.0
  0
VERTEX
  8
0
  5
3FC
 10
-13.34924
 20
-2.95849
 30
0.0
  0
VERTEX
  8
0
  5
3FD
 10
-13.44002
 20
-2.92846
 30
0.0
  0
VERTEX
  8
0
  5
3FE
 10
-13.51763
 20
-2.88024
 30
0.0
  0
VERTEX
  8
0
  5
3FF
 10
-13.58053
 20
-2.81509
 30
0.0
  0
VERTEX
  8
0
  5
400
 10
-13.62727
 20
-2.73434
 30
0.0
  0
VERTEX
  8
0
  5
401
 10
-13.65632
 20
-2.63927
 30
0.0
  0
VERTEX
  8
0
  5
402
 10
-13.66621
 20
-2.53119
 30
0.0
  0
VERTEX
  8
0
  5
403
 10
-13.65541
 20
-2.41136
 30
0.0
  0
VERTEX
  8
0
  5
404
 10
-13.62245
 20
-2.28111
 30
0.0
  0
VERTEX
  8
0
  5
405
 10
-13.56582
 20
-2.1417
 30
0.0
  0
VERTEX
  8
0
  5
406
 10
-13.48405
 20
-1.99446
 30
0.0
  0
VERTEX
  8
0
  5
407
 10
-13.6575
 20
-2.00751
 30
0.0
  0
VERTEX
  8
0
  5
408
 10
-13.81241
 20
-2.00184
 30
0.0
  0
VERTEX
  8
0
  5
409
 10
-13.94831
 20
-1.97925
 30
0.0
  0
VERTEX
  8
0
  5
40A
 10
-14.06478
 20
-1.9416
 30
0.0
  0
VERTEX
  8
0
  5
40B
 10
-14.16131
 20
-1.89067
 30
0.0
  0
VERTEX
  8
0
  5
40C
 10
-14.2375
 20
-1.82833
 30
0.0
  0
VERTEX
  8
0
  5
40D
 10
-14.29286
 20
-1.75639
 30
0.0
  0
VERTEX
  8
0
  5
40E
 10
-14.32696
 20
-1.67669
 30
0.0
  0
VERTEX
  8
0
  5
40F
 10
-14.33931
 20
-1.59102
 30
0.0
  0
VERTEX
  8
0
  5
410
 10
-14.3295
 20
-1.50126
 30
0.0
  0
VERTEX
  8
0
  5
411
 10
-14.29705
 20
-1.40921
 30
0.0
  0
VERTEX
  8
0
  5
412
 10
-14.24152
 20
-1.31671
 30
0.0
  0
VERTEX
  8
0
  5
413
 10
-14.16243
 20
-1.22556
 30
0.0
  0
VERTEX
  8
0
  5
414
 10
-14.05936
 20
-1.13762
 30
0.0
  0
VERTEX
  8
0
  5
415
 10
-13.93184
 20
-1.0547
 30
0.0
  0
VERTEX
  8
0
  5
416
 10
-13.77942
 20
-0.97864
 30
0.0
  0
VERTEX
  8
0
  5
417
 10
-13.91974
 20
-0.87727
 30
0.0
  0
VERTEX
  8
0
  5
418
 10
-14.03483
 20
-0.77351
 30
0.0
  0
VERTEX
  8
0
  5
419
 10
-14.12534
 20
-0.669
 30
0.0
  0
VERTEX
  8
0
  5
41A
 10
-14.19198
 20
-0.56542
 30
0.0
  0
VERTEX
  8
0
  5
41B
 10
-14.23538
 20
-0.46442
 30
0.0
  0
VERTEX
  8
0
  5
41C
 10
-14.25623
 20
-0.36768
 30
0.0
  0
VERTEX
  8
0
  5
41D
 10
-14.2552
 20
-0.27685
 30
0.0
  0
VERTEX
  8
0
  5
41E
 10
-14.23295
 20
-0.19361
 30
0.0
  0
VERTEX
  8
0
  5
41F
 10
-14.19014
 20
-0.11958
 30
0.0
  0
VERTEX
  8
0
  5
420
 10
-14.12746
 20
-0.05649
 30
0.0
  0
VERTEX
  8
0
  5
421
 10
-14.04558
 20
-0.00596
 30
0.0
  0
VERTEX
  8
0
  5
422
 10
-13.94516
 20
0.03034
 30
0.0
  0
VERTEX
  8
0
  5
423
 10
-13.82686
 20
0.05073
 30
0.0
  0
VERTEX
  8
0
  5
424
 10
-13.69138
 20
0.05358
 30
0.0
  0
VERTEX
  8
0
  5
425
 10
-13.53936
 20
0.0372
 30
0.0
  0
VERTEX
  8
0
  5
426
 10
-13.3715
 20
-0.00005
 30
0.0
  0
VERTEX
  8
0
  5
427
 10
-13.42769
 20
0.16413
 30
0.0
  0
VERTEX
  8
0
  5
428
 10
-13.46014
 20
0.31554
 30
0.0
  0
VERTEX
  8
0
  5
429
 10
-13.47055
 20
0.45322
 30
0.0
  0
VERTEX
  8
0
  5
42A
 10
-13.4607
 20
0.57627
 30
0.0
  0
VERTEX
  8
0
  5
42B
 10
-13.43231
 20
0.68371
 30
0.0
  0
VERTEX
  8
0
  5
42C
 10
-13.38714
 20
0.77463
 30
0.0
  0
VERTEX
  8
0
  5
42D
 10
-13.32692
 20
0.84808
 30
0.0
  0
VERTEX
  8
0
  5
42E
 10
-13.25342
 20
0.90313
 30
0.0
  0
VERTEX
  8
0
  5
42F
 10
-13.16834
 20
0.93881
 30
0.0
  0
VERTEX
  8
0
  5
430
 10
-13.07347
 20
0.95422
 30
0.0
  0
VERTEX
  8
0
  5
431
 10
-12.97053
 20
0.94839
 30
0.0
  0
VERTEX
  8
0
  5
432
 10
-12.86129
 20
0.92042
 30
0.0
  0
VERTEX
  8
0
  5
433
 10
-12.74744
 20
0.86933
 30
0.0
  0
VERTEX
  8
0
  5
434
 10
-12.63079
 20
0.79422
 30
0.0
  0
VERTEX
  8
0
  5
435
 10
-12.51305
 20
0.69413
 30
0.0
  0
VERTEX
  8
0
  5
436
 10
-12.39598
 20
0.56813
 30
0.0
  0
VERTEX
  8
0
  5
437
 10
-12.34693
 20
0.73337
 30
0.0
  0
VERTEX
  8
0
  5
438
 10
-12.28535
 20
0.87512
 30
0.0
  0
VERTEX
  8
0
  5
439
 10
-12.21327
 20
0.99353
 30
0.0
  0
VERTEX
  8
0
  5
43A
 10
-12.13274
 20
1.0888
 30
0.0
  0
VERTEX
  8
0
  5
43B
 10
-12.0458
 20
1.1611
 30
0.0
  0
VERTEX
  8
0
  5
43C
 10
-11.95453
 20
1.21063
 30
0.0
  0
VERTEX
  8
0
  5
43D
 10
-11.86097
 20
1.23756
 30
0.0
  0
VERTEX
  8
0
  5
43E
 10
-11.76719
 20
1.24209
 30
0.0
  0
VERTEX
  8
0
  5
43F
 10
-11.67521
 20
1.22437
 30
0.0
  0
VERTEX
  8
0
  5
440
 10
-11.58711
 20
1.18464
 30
0.0
  0
VERTEX
  8
0
  5
441
 10
-11.50493
 20
1.12303
 30
0.0
  0
VERTEX
  8
0
  5
442
 10
-11.43075
 20
1.03977
 30
0.0
  0
VERTEX
  8
0
  5
443
 10
-11.36659
 20
0.935
 30
0.0
  0
VERTEX
  8
0
  5
444
 10
-11.31453
 20
0.80894
 30
0.0
  0
VERTEX
  8
0
  5
445
 10
-11.27661
 20
0.66176
 30
0.0
  0
VERTEX
  8
0
  5
446
 10
-11.2549
 20
0.49364
 30
0.0
  0
VERTEX
  8
0
  5
447
 10
-11.11748
 20
0.60111
 30
0.0
  0
VERTEX
  8
0
  5
448
 10
-10.98415
 20
0.68247
 30
0.0
  0
VERTEX
  8
0
  5
449
 10
-10.85639
 20
0.73899
 30
0.0
  0
VERTEX
  8
0
  5
44A
 10
-10.73571
 20
0.77199
 30
0.0
  0
VERTEX
  8
0
  5
44B
 10
-10.62361
 20
0.78271
 30
0.0
  0
VERTEX
  8
0
  5
44C
 10
-10.5216
 20
0.77248
 30
0.0
  0
VERTEX
  8
0
  5
44D
 10
-10.43118
 20
0.74256
 30
0.0
  0
VERTEX
  8
0
  5
44E
 10
-10.35386
 20
0.69426
 30
0.0
  0
VERTEX
  8
0
  5
44F
 10
-10.29113
 20
0.62884
 30
0.0
  0
VERTEX
  8
0
  5
450
 10
-10.24451
 20
0.54761
 30
0.0
  0
VERTEX
  8
0
  5
451
 10
-10.21549
 20
0.45184
 30
0.0
  0
VERTEX
  8
0
  5
452
 10
-10.20559
 20
0.34285
 30
0.0
  0
VERTEX
  8
0
  5
453
 10
-10.21629
 20
0.22189
 30
0.0
  0
VERTEX
  8
0
  5
454
 10
-10.24914
 20
0.09029
 30
0.0
  0
VERTEX
  8
0
  5
455
 10
-10.30559
 20
-0.0507
 30
0.0
  0
VERTEX
  8
0
  5
456
 10
-10.3872
 20
-0.19979
 30
0.0
  0
VERTEX
  8
0
  5
457
 10
-10.21352
 20
-0.18855
 30
0.0
  0
VERTEX
  8
0
  5
458
 10
-10.05843
 20
-0.19583
 30
0.0
  0
VERTEX
  8
0
  5
459
 10
-9.92235
 20
-0.2198
 30
0.0
  0
VERTEX
  8
0
  5
45A
 10
-9.80576
 20
-0.25866
 30
0.0
  0
VERTEX
  8
0
  5
45B
 10
-9.70907
 20
-0.31058
 30
0.0
  0
VERTEX
  8
0
  5
45C
 10
-9.63276
 20
-0.37378
 30
0.0
  0
VERTEX
  8
0
  5
45D
 10
-9.57727
 20
-0.44642
 30
0.0
  0
VERTEX
  8
0
  5
45E
 10
-9.54306
 20
-0.5267
 30
0.0
  0
VERTEX
  8
0
  5
45F
 10
-9.53054
 20
-0.61279
 30
0.0
  0
VERTEX
  8
0
  5
460
 10
-9.54021
 20
-0.70291
 30
0.0
  0
VERTEX
  8
0
  5
461
 10
-9.57249
 20
-0.79523
 30
0.0
  0
VERTEX
  8
0
  5
462
 10
-9.62785
 20
-0.88795
 30
0.0
  0
VERTEX
  8
0
  5
463
 10
-9.70671
 20
-0.97923
 30
0.0
  0
VERTEX
  8
0
  5
464
 10
-9.80956
 20
-1.06729
 30
0.0
  0
VERTEX
  8
0
  5
465
 10
-9.93682
 20
-1.1503
 30
0.0
  0
VERTEX
  8
0
  5
466
 10
-10.08896
 20
-1.22646
 30
0.0
  0
VERTEX
  8
0
  5
467
 10
-9.94832
 20
-1.32787
 30
0.0
  0
VERTEX
  8
0
  5
468
 10
-9.83298
 20
-1.43165
 30
0.0
  0
VERTEX
  8
0
  5
469
 10
-9.74224
 20
-1.53607
 30
0.0
  0
VERTEX
  8
0
  5
46A
 10
-9.67546
 20
-1.63945
 30
0.0
  0
VERTEX
  8
0
  5
46B
 10
-9.63194
 20
-1.74005
 30
0.0
  0
VERTEX
  8
0
  5
46C
 10
-9.61107
 20
-1.83619
 30
0.0
  0
VERTEX
  8
0
  5
46D
 10
-9.61213
 20
-1.92615
 30
0.0
  0
VERTEX
  8
0
  5
46E
 10
-9.6345
 20
-2.00824
 30
0.0
  0
VERTEX
  8
0
  5
46F
 10
-9.67746
 20
-2.08072
 30
0.0
  0
VERTEX
  8
0
  5
470
 10
-9.7404
 20
-2.14193
 30
0.0
  0
VERTEX
  8
0
  5
471
 10
-9.82262
 20
-2.19013
 30
0.0
  0
VERTEX
  8
0
  5
472
 10
-9.92347
 20
-2.22364
 30
0.0
  0
VERTEX
  8
0
  5
473
 10
-10.04227
 20
-2.24072
 30
0.0
  0
VERTEX
  8
0
  5
474
 10
-10.17836
 20
-2.2397
 30
0.0
  0
VERTEX
  8
0
  5
475
 10
-10.33108
 20
-2.21886
 30
0.0
  0
VERTEX
  8
0
  5
476
 10
-10.49978
 20
-2.1765
 30
0.0
  0
VERTEX
  8
0
  5
477
 10
-10.44423
 20
-2.33604
 30
0.0
  0
VERTEX
  8
0
  5
478
 10
-10.41209
 20
-2.48433
 30
0.0
  0
VERTEX
  8
0
  5
479
 10
-10.40165
 20
-2.62022
 30
0.0
  0
VERTEX
  8
0
  5
47A
 10
-10.41125
 20
-2.74265
 30
0.0
  0
VERTEX
  8
0
  5
47B
 10
-10.43916
 20
-2.85045
 30
0.0
  0
VERTEX
  8
0
  5
47C
 10
-10.48371
 20
-2.94256
 30
0.0
  0
VERTEX
  8
0
  5
47D
 10
-10.54319
 20
-3.01786
 30
0.0
  0
VERTEX
  8
0
  5
47E
 10
-10.61595
 20
-3.07525
 30
0.0
  0
VERTEX
  8
0
  5
47F
 10
-10.70023
 20
-3.11359
 30
0.0
  0
VERTEX
  8
0
  5
480
 10
-10.79439
 20
-3.13182
 30
0.0
  0
VERTEX
  8
0
  5
481
 10
-10.89671
 20
-3.12881
 30
0.0
  0
VERTEX
  8
0
  5
482
 10
-11.00554
 20
-3.10347
 30
0.0
  0
VERTEX
  8
0
  5
483
 10
-11.11914
 20
-3.05466
 30
0.0
  0
VERTEX
  8
0
  5
484
 10
-11.23584
 20
-2.9813
 30
0.0
  0
VERTEX
  8
0
  5
485
 10
-11.35394
 20
-2.88228
 30
0.0
  0
SEQEND
  8
0
  5
486
  0
POLYLINE
  8
0
  5
487
 66
     1
 10
0.0
 20
0.0
 30
0.0
  0
VERTEX
  8
0
  5
488
 10
-11.78547
 20
-1.47322
 30
0.0
  0
VERTEX
  8
0
  5
489
 10
-11.78547
 20
-1.47322
 30
0.0
  0
VERTEX
  8
0
  5
48A
 10
-11.82502
 20
-1.48634
 30
0.0
  0
VERTEX
  8
0
  5
48B
 10
-11.86497
 20
-1.49523
 30
0.0
  0
VERTEX
  8
0
  5
48C
 10
-11.90503
 20
-1.49999
 30
0.0
  0
VERTEX
  8
0
  5
48D
 10
-11.94495
 20
-1.50077
 30
0.0
  0
VERTEX
  8
0
  5
48E
 10
-11.98442
 20
-1.49764
 30
0.0
  0
VERTEX
  8
0
  5
48F
 10
-12.02322
 20
-1.49076
 30
0.0
  0
VERTEX
  8
0
  5
490
 10
-12.06105
 20
-1.48023
 30
0.0
  0
VERTEX
  8
0
  5
491
 10
-12.09767
 20
-1.46618
 30
0.0
  0
VERTEX
  8
0
  5
492
 10
-12.13276
 20
-1.4487
 30
0.0
  0
VERTEX
  8
0
  5
493
 10
-12.1661
 20
-1.42794
 30
0.0
  0
VERTEX
  8
0
  5
494
 10
-12.19738
 20
-1.40399
 30
0.0
  0
VERTEX
  8
0
  5
495
 10
-12.22638
 20
-1.37701
 30
0.0
  0
VERTEX
  8
0
  5
496
 10
-12.25279
 20
-1.34707
 30
0.0
  0
VERTEX
  8
0
  5
497
 10
-12.27636
 20
-1.31433
 30
0.0
  0
VERTEX
  8
0
  5
498
 10
-12.29681
 20
-1.27889
 30
0.0
  0
VERTEX
  8
0
  5
499
 10
-12.3139
 20
-1.24087
 30
0.0
  0
VERTEX
  8
0
  5
49A
 10
-12.32702
 20
-1.20129
 30
0.0
  0
VERTEX
  8
0
  5
49B
 10
-12.33591
 20
-1.16134
 30
0.0
  0
VERTEX
  8
0
  5
49C
 10
-12.34067
 20
-1.12127
 30
0.0
  0
VERTEX
  8
0
  5
49D
 10
-12.34145
 20
-1.08136
 30
0.0
  0
VERTEX
  8
0
  5
49E
 10
-12.33832
 20
-1.04186
 30
0.0
  0
VERTEX
  8
0
  5
49F
 10
-12.33144
 20
-1.00308
 30
0.0
  0
VERTEX
  8
0
  5
4A0
 10
-12.32091
 20
-0.96524
 30
0.0
  0
VERTEX
  8
0
  5
4A1
 10
-12.30686
 20
-0.92865
 30
0.0
  0
VERTEX
  8
0
  5
4A2
 10
-12.28938
 20
-0.89354
 30
0.0
  0
VERTEX
  8
0
  5
4A3
 10
-12.26862
 20
-0.8602
 30
0.0
  0
VERTEX
  8
0
  5
4A4
 10
-12.24467
 20
-0.8289
 30
0.0
  0
VERTEX
  8
0
  5
4A5
 10
-12.21769
 20
-0.79992
 30
0.0
  0
VERTEX
  8
0
  5
4A6
 10
-12.18775
 20
-0.7735
 30
0.0
  0
VERTEX
  8
0
  5
4A7
 10
-12.15501
 20
-0.74994
 30
0.0
  0
VERTEX
  8
0
  5
4A8
 10
-12.11957
 20
-0.72949
 30
0.0
  0
VERTEX
  8
0
  5
4A9
 10
-12.08155
 20
-0.71243
 30
0.0
  0
VERTEX
  8
0
  5
4AA
 10
-12.04197
 20
-0.69928
 30
0.0
  0
VERTEX
  8
0
  5
4AB
 10
-12.00203
 20
-0.69039
 30
0.0
  0
VERTEX
  8
0
  5
4AC
 10
-11.96196
 20
-0.68561
 30
0.0
  0
VERTEX
  8
0
  5
4AD
 10
-11.92205
 20
-0.68486
 30
0.0
  0
VERTEX
  8
0
  5
4AE
 10
-11.88255
 20
-0.68797
 30
0.0
  0
VERTEX
  8
0
  5
4AF
 10
-11.84377
 20
-0.69486
 30
0.0
  0
VERTEX
  8
0
  5
4B0
 10
-11.80593
 20
-0.70538
 30
0.0
  0
VERTEX
  8
0
  5
4B1
 10
-11.76934
 20
-0.71946
 30
0.0
  0
VERTEX
  8
0
  5
4B2
 10
-11.73423
 20
-0.73692
 30
0.0
  0
VERTEX
  8
0
  5
4B3
 10
-11.70089
 20
-0.75769
 30
0.0
  0
VERTEX
  8
0
  5
4B4
 10
-11.66959
 20
-0.78161
 30
0.0
  0
VERTEX
  8
0
  5
4B5
 10
-11.64061
 20
-0.80862
 30
0.0
  0
VERTEX
  8
0
  5
4B6
 10
-11.61419
 20
-0.83854
 30
0.0
  0
VERTEX
  8
0
  5
4B7
 10
-11.59063
 20
-0.87129
 30
0.0
  0
VERTEX
  8
0
  5
4B8
 10
-11.57018
 20
-0.90673
 30
0.0
  0
VERTEX
  8
0
  5
4B9
 10
-11.55312
 20
-0.94478
 30
0.0
  0
VERTEX
  8
0
  5
4BA
 10
-11.53997
 20
-0.98433
 30
0.0
  0
VERTEX
  8
0
  5
4BB
 10
-11.53108
 20
-1.02428
 30
0.0
  0
VERTEX
  8
0
  5
4BC
 10
-11.5263
 20
-1.06434
 30
0.0
  0
VERTEX
  8
0
  5
4BD
 10
-11.52555
 20
-1.10426
 30
0.0
  0
VERTEX
  8
0
  5
4BE
 10
-11.52866
 20
-1.14373
 30
0.0
  0
VERTEX
  8
0
  5
4BF
 10
-11.53555
 20
-1.18253
 30
0.0
  0
VERTEX
  8
0
  5
4C0
 10
-11.54607
 20
-1.22036
 30
0.0
  0
VERTEX
  8
0
  5
4C1
 10
-11.56015
 20
-1.25698
 30
0.0
  0
VERTEX
  8
0
  5
4C2
 10
-11.5776
 20
-1.29207
 30
0.0
  0
VERTEX
  8
0
  5
4C3
 10
-11.59837
 20
-1.32541
 30
0.0
  0
VERTEX
  8
0
  5
4C4
 10
-11.62229
 20
-1.3567
 30
0.0
  0
VERTEX
  8
0
  5
4C5
 10
-11.6493
 20
-1.3857
 30
0.0
  0
VERTEX
  8
0
  5
4C6
 10
-11.67922
 20
-1.41211
 30
0.0
  0
VERTEX
  8
0
  5
4C7
 10
-11.71198
 20
-1.43568
 30
0.0
  0
VERTEX
  8
0
  5
4C8
 10
-11.74742
 20
-1.45613
 30
0.0
  0
SEQEND
  8
0
  5
4C9
  0
POLYLINE
  8
0
  5
4CA
 66
     1
 10
0.0
 20
0.0
 30
0.0
  0
VERTEX
  8
0
  5
4CB
 10
12.39809
 20
-2.75651
 30
0.0
  0
VERTEX
  8
0
  5
4CC
 10
12.39809
 20
-2.75651
 30
0.0
  0
VERTEX
  8
0
  5
4CD
 10
12.34831
 20
-2.92162
 30
0.0
  0
VERTEX
  8
0
  5
4CE
 10
12.28635
 20
-3.06346
 30
0.0
  0
VERTEX
  8
0
  5
4CF
 10
12.21418
 20
-3.18215
 30
0.0
  0
VERTEX
  8
0
  5
4D0
 10
12.13383
 20
-3.27785
 30
0.0
  0
VERTEX
  8
0
  5
4D1
 10
12.04725
 20
-3.35068
 30
0.0
  0
VERTEX
  8
0
  5
4D2
 10
11.9565
 20
-3.4008
 30
0.0
  0
VERTEX
  8
0
  5
4D3
 10
11.86355
 20
-3.42834
 30
0.0
  0
VERTEX
  8
0
  5
4D4
 10
11.77042
 20
-3.43347
 30
0.0
  0
VERTEX
  8
0
  5
4D5
 10
11.67907
 20
-3.41629
 30
0.0
  0
VERTEX
  8
0
  5
4D6
 10
11.59154
 20
-3.37698
 30
0.0
  0
VERTEX
  8
0
  5
4D7
 10
11.50981
 20
-3.31566
 30
0.0
  0
VERTEX
  8
0
  5
4D8
 10
11.43591
 20
-3.23249
 30
0.0
  0
VERTEX
  8
0
  5
4D9
 10
11.3718
 20
-3.1276
 30
0.0
  0
VERTEX
  8
0
  5
4DA
 10
11.31952
 20
-3.00114
 30
0.0
  0
VERTEX
  8
0
  5
4DB
 10
11.28105
 20
-2.85325
 30
0.0
  0
VERTEX
  8
0
  5
4DC
 10
11.25841
 20
-2.68409
 30
0.0
  0
VERTEX
  8
0
  5
4DD
 10
11.11992
 20
-2.7904
 30
0.0
  0
VERTEX
  8
0
  5
4DE
 10
10.98565
 20
-2.87076
 30
0.0
  0
VERTEX
  8
0
  5
4DF
 10
10.85708
 20
-2.92645
 30
0.0
  0
VERTEX
  8
0
  5
4E0
 10
10.73572
 20
-2.95879
 30
0.0
  0
VERTEX
  8
0
  5
4E1
 10
10.62304
 20
-2.96902
 30
0.0
  0
VERTEX
  8
0
  5
4E2
 10
10.52057
 20
-2.95849
 30
0.0
  0
VERTEX
  8
0
  5
4E3
 10
10.42978
 20
-2.92846
 30
0.0
  0
VERTEX
  8
0
  5
4E4
 10
10.3522
 20
-2.88024
 30
0.0
  0
VERTEX
  8
0
  5
4E5
 10
10.28927
 20
-2.81509
 30
0.0
  0
VERTEX
  8
0
  5
4E6
 10
10.24254
 20
-2.73434
 30
0.0
  0
VERTEX
  8
0
  5
4E7
 10
10.21349
 20
-2.63927
 30
0.0
  0
VERTEX
  8
0
  5
4E8
 10
10.20362
 20
-2.53119
 30
0.0
  0
VERTEX
  8
0
  5
4E9
 10
10.21441
 20
-2.41136
 30
0.0
  0
VERTEX
  8
0
  5
4EA
 10
10.24737
 20
-2.28111
 30
0.0
  0
VERTEX
  8
0
  5
4EB
 10
10.304
 20
-2.1417
 30
0.0
  0
VERTEX
  8
0
  5
4EC
 10
10.3858
 20
-1.99446
 30
0.0
  0
VERTEX
  8
0
  5
4ED
 10
10.21232
 20
-2.00751
 30
0.0
  0
VERTEX
  8
0
  5
4EE
 10
10.05741
 20
-2.00184
 30
0.0
  0
VERTEX
  8
0
  5
4EF
 10
9.92149
 20
-1.97925
 30
0.0
  0
VERTEX
  8
0
  5
4F0
 10
9.80505
 20
-1.9416
 30
0.0
  0
VERTEX
  8
0
  5
4F1
 10
9.7085
 20
-1.89067
 30
0.0
  0
VERTEX
  8
0
  5
4F2
 10
9.63232
 20
-1.82833
 30
0.0
  0
VERTEX
  8
0
  5
4F3
 10
9.57696
 20
-1.75639
 30
0.0
  0
VERTEX
  8
0
  5
4F4
 10
9.54288
 20
-1.67669
 30
0.0
  0
VERTEX
  8
0
  5
4F5
 10
9.5305
 20
-1.59102
 30
0.0
  0
VERTEX
  8
0
  5
4F6
 10
9.54032
 20
-1.50126
 30
0.0
  0
VERTEX
  8
0
  5
4F7
 10
9.57277
 20
-1.40921
 30
0.0
  0
VERTEX
  8
0
  5
4F8
 10
9.62831
 20
-1.31671
 30
0.0
  0
VERTEX
  8
0
  5
4F9
 10
9.70738
 20
-1.22556
 30
0.0
  0
VERTEX
  8
0
  5
4FA
 10
9.81046
 20
-1.13762
 30
0.0
  0
VERTEX
  8
0
  5
4FB
 10
9.93798
 20
-1.0547
 30
0.0
  0
VERTEX
  8
0
  5
4FC
 10
10.09043
 20
-0.97864
 30
0.0
  0
VERTEX
  8
0
  5
4FD
 10
9.95008
 20
-0.87727
 30
0.0
  0
VERTEX
  8
0
  5
4FE
 10
9.83499
 20
-0.77351
 30
0.0
  0
VERTEX
  8
0
  5
4FF
 10
9.74446
 20
-0.669
 30
0.0
  0
VERTEX
  8
0
  5
500
 10
9.67784
 20
-0.56542
 30
0.0
  0
VERTEX
  8
0
  5
501
 10
9.63443
 20
-0.46442
 30
0.0
  0
VERTEX
  8
0
  5
502
 10
9.61359
 20
-0.36768
 30
0.0
  0
VERTEX
  8
0
  5
503
 10
9.61462
 20
-0.27685
 30
0.0
  0
VERTEX
  8
0
  5
504
 10
9.63689
 20
-0.19361
 30
0.0
  0
VERTEX
  8
0
  5
505
 10
9.67968
 20
-0.11958
 30
0.0
  0
VERTEX
  8
0
  5
506
 10
9.74236
 20
-0.05649
 30
0.0
  0
VERTEX
  8
0
  5
507
 10
9.82424
 20
-0.00596
 30
0.0
  0
VERTEX
  8
0
  5
508
 10
9.92467
 20
0.03034
 30
0.0
  0
VERTEX
  8
0
  5
509
 10
10.04295
 20
0.05073
 30
0.0
  0
VERTEX
  8
0
  5
50A
 10
10.17845
 20
0.05358
 30
0.0
  0
VERTEX
  8
0
  5
50B
 10
10.33046
 20
0.0372
 30
0.0
  0
VERTEX
  8
0
  5
50C
 10
10.49835
 20
-0.00005
 30
0.0
  0
VERTEX
  8
0
  5
50D
 10
10.44214
 20
0.16413
 30
0.0
  0
VERTEX
  8
0
  5
50E
 10
10.40969
 20
0.31554
 30
0.0
  0
VERTEX
  8
0
  5
50F
 10
10.39926
 20
0.45322
 30
0.0
  0
VERTEX
  8
0
  5
510
 10
10.40913
 20
0.57627
 30
0.0
  0
VERTEX
  8
0
  5
511
 10
10.4375
 20
0.68371
 30
0.0
  0
VERTEX
  8
0
  5
512
 10
10.48268
 20
0.77463
 30
0.0
  0
VERTEX
  8
0
  5
513
 10
10.54289
 20
0.84808
 30
0.0
  0
VERTEX
  8
0
  5
514
 10
10.61642
 20
0.90313
 30
0.0
  0
VERTEX
  8
0
  5
515
 10
10.70147
 20
0.93881
 30
0.0
  0
VERTEX
  8
0
  5
516
 10
10.79635
 20
0.95422
 30
0.0
  0
VERTEX
  8
0
  5
517
 10
10.89928
 20
0.94839
 30
0.0
  0
VERTEX
  8
0
  5
518
 10
11.00855
 20
0.92042
 30
0.0
  0
VERTEX
  8
0
  5
519
 10
11.12237
 20
0.86933
 30
0.0
  0
VERTEX
  8
0
  5
51A
 10
11.23903
 20
0.79422
 30
0.0
  0
VERTEX
  8
0
  5
51B
 10
11.35677
 20
0.69413
 30
0.0
  0
VERTEX
  8
0
  5
51C
 10
11.47387
 20
0.56813
 30
0.0
  0
VERTEX
  8
0
  5
51D
 10
11.52289
 20
0.73337
 30
0.0
  0
VERTEX
  8
0
  5
51E
 10
11.58447
 20
0.87512
 30
0.0
  0
VERTEX
  8
0
  5
51F
 10
11.65655
 20
0.99353
 30
0.0
  0
VERTEX
  8
0
  5
520
 10
11.73709
 20
1.0888
 30
0.0
  0
VERTEX
  8
0
  5
521
 10
11.82401
 20
1.1611
 30
0.0
  0
VERTEX
  8
0
  5
522
 10
11.91528
 20
1.21063
 30
0.0
  0
VERTEX
  8
0
  5
523
 10
12.00884
 20
1.23756
 30
0.0
  0
VERTEX
  8
0
  5
524
 10
12.10264
 20
1.24209
 30
0.0
  0
VERTEX
  8
0
  5
525
 10
12.1946
 20
1.22437
 30
0.0
  0
VERTEX
  8
0
  5
526
 10
12.2827
 20
1.18464
 30
0.0
  0
VERTEX
  8
0
  5
527
 10
12.36486
 20
1.12303
 30
0.0
  0
VERTEX
  8
0
  5
528
 10
12.43907
 20
1.03977
 30
0.0
  0
VERTEX
  8
0
  5
529
 10
12.50321
 20
0.935
 30
0.0
  0
VERTEX
  8
0
  5
52A
 10
12.55529
 20
0.80894
 30
0.0
  0
VERTEX
  8
0
  5
52B
 10
12.59321
 20
0.66176
 30
0.0
  0
VERTEX
  8
0
  5
52C
 10
12.61495
 20
0.49364
 30
0.0
  0
VERTEX
  8
0
  5
52D
 10
12.75234
 20
0.60111
 30
0.0
  0
VERTEX
  8
0
  5
52E
 10
12.88568
 20
0.68247
 30
0.0
  0
VERTEX
  8
0
  5
52F
 10
13.01344
 20
0.73899
 30
0.0
  0
VERTEX
  8
0
  5
530
 10
13.13413
 20
0.77199
 30
0.0
  0
VERTEX
  8
0
  5
531
 10
13.24621
 20
0.78271
 30
0.0
  0
VERTEX
  8
0
  5
532
 10
13.34823
 20
0.77248
 30
0.0
  0
VERTEX
  8
0
  5
533
 10
13.43864
 20
0.74256
 30
0.0
  0
VERTEX
  8
0
  5
534
 10
13.51598
 20
0.69426
 30
0.0
  0
VERTEX
  8
0
  5
535
 10
13.57869
 20
0.62884
 30
0.0
  0
VERTEX
  8
0
  5
536
 10
13.62531
 20
0.54761
 30
0.0
  0
VERTEX
  8
0
  5
537
 10
13.65432
 20
0.45184
 30
0.0
  0
VERTEX
  8
0
  5
538
 10
13.66423
 20
0.34285
 30
0.0
  0
VERTEX
  8
0
  5
539
 10
13.65351
 20
0.22189
 30
0.0
  0
VERTEX
  8
0
  5
53A
 10
13.62068
 20
0.09029
 30
0.0
  0
VERTEX
  8
0
  5
53B
 10
13.56423
 20
-0.0507
 30
0.0
  0
VERTEX
  8
0
  5
53C
 10
13.48265
 20
-0.19979
 30
0.0
  0
VERTEX
  8
0
  5
53D
 10
13.6563
 20
-0.18855
 30
0.0
  0
VERTEX
  8
0
  5
53E
 10
13.81139
 20
-0.19583
 30
0.0
  0
VERTEX
  8
0
  5
53F
 10
13.94746
 20
-0.2198
 30
0.0
  0
VERTEX
  8
0
  5
540
 10
14.06407
 20
-0.25866
 30
0.0
  0
VERTEX
  8
0
  5
541
 10
14.16074
 20
-0.31058
 30
0.0
  0
VERTEX
  8
0
  5
542
 10
14.23705
 20
-0.37378
 30
0.0
  0
VERTEX
  8
0
  5
543
 10
14.29254
 20
-0.44642
 30
0.0
  0
VERTEX
  8
0
  5
544
 10
14.32678
 20
-0.5267
 30
0.0
  0
VERTEX
  8
0
  5
545
 10
14.33927
 20
-0.61279
 30
0.0
  0
VERTEX
  8
0
  5
546
 10
14.3296
 20
-0.70291
 30
0.0
  0
VERTEX
  8
0
  5
547
 10
14.29731
 20
-0.79523
 30
0.0
  0
VERTEX
  8
0
  5
548
 10
14.24197
 20
-0.88795
 30
0.0
  0
VERTEX
  8
0
  5
549
 10
14.16309
 20
-0.97923
 30
0.0
  0
VERTEX
  8
0
  5
54A
 10
14.06026
 20
-1.06729
 30
0.0
  0
VERTEX
  8
0
  5
54B
 10
13.933
 20
-1.1503
 30
0.0
  0
VERTEX
  8
0
  5
54C
 10
13.78089
 20
-1.22646
 30
0.0
  0
VERTEX
  8
0
  5
54D
 10
13.9215
 20
-1.32787
 30
0.0
  0
VERTEX
  8
0
  5
54E
 10
14.03684
 20
-1.43165
 30
0.0
  0
VERTEX
  8
0
  5
54F
 10
14.12756
 20
-1.53607
 30
0.0
  0
VERTEX
  8
0
  5
550
 10
14.19436
 20
-1.63945
 30
0.0
  0
VERTEX
  8
0
  5
551
 10
14.23785
 20
-1.74005
 30
0.0
  0
VERTEX
  8
0
  5
552
 10
14.25874
 20
-1.83619
 30
0.0
  0
VERTEX
  8
0
  5
553
 10
14.25768
 20
-1.92615
 30
0.0
  0
VERTEX
  8
0
  5
554
 10
14.23533
 20
-2.00824
 30
0.0
  0
VERTEX
  8
0
  5
555
 10
14.19235
 20
-2.08072
 30
0.0
  0
VERTEX
  8
0
  5
556
 10
14.12942
 20
-2.14193
 30
0.0
  0
VERTEX
  8
0
  5
557
 10
14.04719
 20
-2.19013
 30
0.0
  0
VERTEX
  8
0
  5
558
 10
13.94636
 20
-2.22364
 30
0.0
  0
VERTEX
  8
0
  5
559
 10
13.82755
 20
-2.24072
 30
0.0
  0
VERTEX
  8
0
  5
55A
 10
13.69147
 20
-2.2397
 30
0.0
  0
VERTEX
  8
0
  5
55B
 10
13.53874
 20
-2.21886
 30
0.0
  0
VERTEX
  8
0
  5
55C
 10
13.37007
 20
-2.1765
 30
0.0
  0
VERTEX
  8
0
  5
55D
 10
13.4256
 20
-2.33604
 30
0.0
  0
VERTEX
  8
0
  5
55E
 10
13.45774
 20
-2.48433
 30
0.0
  0
VERTEX
  8
0
  5
55F
 10
13.46816
 20
-2.62022
 30
0.0
  0
VERTEX
  8
0
  5
560
 10
13.45858
 20
-2.74265
 30
0.0
  0
VERTEX
  8
0
  5
561
 10
13.43065
 20
-2.85045
 30
0.0
  0
VERTEX
  8
0
  5
562
 10
13.38611
 20
-2.94256
 30
0.0
  0
VERTEX
  8
0
  5
563
 10
13.32662
 20
-3.01786
 30
0.0
  0
VERTEX
  8
0
  5
564
 10
13.25389
 20
-3.07525
 30
0.0
  0
VERTEX
  8
0
  5
565
 10
13.16958
 20
-3.11359
 30
0.0
  0
VERTEX
  8
0
  5
566
 10
13.07542
 20
-3.13182
 30
0.0
  0
VERTEX
  8
0
  5
567
 10
12.97309
 20
-3.12881
 30
0.0
  0
VERTEX
  8
0
  5
568
 10
12.86429
 20
-3.10347
 30
0.0
  0
VERTEX
  8
0
  5
569
 10
12.75068
 20
-3.05466
 30
0.0
  0
VERTEX
  8
0
  5
56A
 10
12.63399
 20
-2.9813
 30
0.0
  0
VERTEX
  8
0
  5
56B
 10
12.51589
 20
-2.88228
 30
0.0
  0
SEQEND
  8
0
  5
56C
  0
POLYLINE
  8
0
  5
56D
 66
     1
 10
0.0
 20
0.0
 30
0.0
  0
VERTEX
  8
0
  5
56E
 10
12.08438
 20
-1.47322
 30
0.0
  0
VERTEX
  8
0
  5
56F
 10
12.08438
 20
-1.47322
 30
0.0
  0
VERTEX
  8
0
  5
570
 10
12.0448
 20
-1.48634
 30
0.0
  0
VERTEX
  8
0
  5
571
 10
12.00485
 20
-1.49523
 30
0.0
  0
VERTEX
  8
0
  5
572
 10
11.96478
 20
-1.49999
 30
0.0
  0
VERTEX
  8
0
  5
573
 10
11.92487
 20
-1.50077
 30
0.0
  0
VERTEX
  8
0
  5
574
 10
11.88537
 20
-1.49764
 30
0.0
  0
VERTEX
  8
0
  5
575
 10
11.84659
 20
-1.49076
 30
0.0
  0
VERTEX
  8
0
  5
576
 10
11.80875
 20
-1.48023
 30
0.0
  0
VERTEX
  8
0
  5
577
 10
11.77216
 20
-1.46618
 30
0.0
  0
VERTEX
  8
0
  5
578
 10
11.73705
 20
-1.4487
 30
0.0
  0
VERTEX
  8
0
  5
579
 10
11.70371
 20
-1.42794
 30
0.0
  0
VERTEX
  8
0
  5
57A
 10
11.67241
 20
-1.40399
 30
0.0
  0
VERTEX
  8
0
  5
57B
 10
11.64344
 20
-1.37701
 30
0.0
  0
VERTEX
  8
0
  5
57C
 10
11.61702
 20
-1.34707
 30
0.0
  0
VERTEX
  8
0
  5
57D
 10
11.59346
 20
-1.31433
 30
0.0
  0
VERTEX
  8
0
  5
57E
 10
11.57301
 20
-1.27889
 30
0.0
  0
VERTEX
  8
0
  5
57F
 10
11.55595
 20
-1.24087
 30
0.0
  0
VERTEX
  8
0
  5
580
 10
11.5428
 20
-1.20129
 30
0.0
  0
VERTEX
  8
0
  5
581
 10
11.53391
 20
-1.16134
 30
0.0
  0
VERTEX
  8
0
  5
582
 10
11.52913
 20
-1.12127
 30
0.0
  0
VERTEX
  8
0
  5
583
 10
11.52838
 20
-1.08136
 30
0.0
  0
VERTEX
  8
0
  5
584
 10
11.53149
 20
-1.04186
 30
0.0
  0
VERTEX
  8
0
  5
585
 10
11.53838
 20
-1.00308
 30
0.0
  0
VERTEX
  8
0
  5
586
 10
11.5489
 20
-0.96524
 30
0.0
  0
VERTEX
  8
0
  5
587
 10
11.56298
 20
-0.92865
 30
0.0
  0
VERTEX
  8
0
  5
588
 10
11.58043
 20
-0.89354
 30
0.0
  0
VERTEX
  8
0
  5
589
 10
11.6012
 20
-0.8602
 30
0.0
  0
VERTEX
  8
0
  5
58A
 10
11.62512
 20
-0.8289
 30
0.0
  0
VERTEX
  8
0
  5
58B
 10
11.65213
 20
-0.79992
 30
0.0
  0
VERTEX
  8
0
  5
58C
 10
11.68205
 20
-0.7735
 30
0.0
  0
VERTEX
  8
0
  5
58D
 10
11.71481
 20
-0.74994
 30
0.0
  0
VERTEX
  8
0
  5
58E
 10
11.75025
 20
-0.72949
 30
0.0
  0
VERTEX
  8
0
  5
58F
 10
11.7883
 20
-0.71243
 30
0.0
  0
VERTEX
  8
0
  5
590
 10
11.82785
 20
-0.69928
 30
0.0
  0
VERTEX
  8
0
  5
591
 10
11.8678
 20
-0.69039
 30
0.0
  0
VERTEX
  8
0
  5
592
 10
11.90786
 20
-0.68561
 30
0.0
  0
VERTEX
  8
0
  5
593
 10
11.94778
 20
-0.68486
 30
0.0
  0
VERTEX
  8
0
  5
594
 10
11.98725
 20
-0.68797
 30
0.0
  0
VERTEX
  8
0
  5
595
 10
12.02605
 20
-0.69486
 30
0.0
  0
VERTEX
  8
0
  5
596
 10
12.06388
 20
-0.70538
 30
0.0
  0
VERTEX
  8
0
  5
597
 10
12.10049
 20
-0.71946
 30
0.0
  0
VERTEX
  8
0
  5
598
 10
12.13558
 20
-0.73692
 30
0.0
  0
VERTEX
  8
0
  5
599
 10
12.16892
 20
-0.75769
 30
0.0
  0
VERTEX
  8
0
  5
59A
 10
12.20021
 20
-0.78161
 30
0.0
  0
VERTEX
  8
0
  5
59B
 10
12.22921
 20
-0.80862
 30
0.0
  0
VERTEX
  8
0
  5
59C
 10
12.25562
 20
-0.83854
 30
0.0
  0
VERTEX
  8
0
  5
59D
 10
12.27919
 20
-0.87129
 30
0.0
  0
VERTEX
  8
0
  5
59E
 10
12.29964
 20
-0.90673
 30
0.0
  0
VERTEX
  8
0
  5
59F
 10
12.31673
 20
-0.94478
 30
0.0
  0
VERTEX
  8
0
  5
5A0
 10
12.32985
 20
-0.98433
 30
0.0
  0
VERTEX
  8
0
  5
5A1
 10
12.33874
 20
-1.02428
 30
0.0
  0
VERTEX
  8
0
  5
5A2
 10
12.3435
 20
-1.06434
 30
0.0
  0
VERTEX
  8
0
  5
5A3
 10
12.34428
 20
-1.10426
 30
0.0
  0
VERTEX
  8
0
  5
5A4
 10
12.34115
 20
-1.14373
 30
0.0
  0
VERTEX
  8
0
  5
5A5
 10
12.33427
 20
-1.18253
 30
0.0
  0
VERTEX
  8
0
  5
5A6
 10
12.32374
 20
-1.22036
 30
0.0
  0
VERTEX
  8
0
  5
5A7
 10
12.30969
 20
-1.25698
 30
0.0
  0
VERTEX
  8
0
  5
5A8
 10
12.29221
 20
-1.29207
 30
0.0
  0
VERTEX
  8
0
  5
5A9
 10
12.27145
 20
-1.32541
 30
0.0
  0
VERTEX
  8
0
  5
5AA
 10
12.2475
 20
-1.3567
 30
0.0
  0
VERTEX
  8
0
  5
5AB
 10
12.22052
 20
-1.3857
 30
0.0
  0
VERTEX
  8
0
  5
5AC
 10
12.19058
 20
-1.41211
 30
0.0
  0
VERTEX
  8
0
  5
5AD
 10
12.15784
 20
-1.43568
 30
0.0
  0
VERTEX
  8
0
  5
5AE
 10
12.1224
 20
-1.45613
 30
0.0
  0
SEQEND
  8
0
  5
5AF
  0
POLYLINE
  8
0
  5
5B0
 66
     1
 10
0.0
 20
0.0
 30
0.0
  0
VERTEX
  8
0
  5
5B1
 10
7.28415
 20
0.86156
 30
0.0
  0
VERTEX
  8
0
  5
5B2
 10
7.28415
 20
0.86156
 30
0.0
  0
VERTEX
  8
0
  5
5B3
 10
7.28689
 20
0.8615
 30
0.0
  0
VERTEX
  8
0
  5
5B4
 10
7.29468
 20
0.86137
 30
0.0
  0
VERTEX
  8
0
  5
5B5
 10
7.30677
 20
0.86116
 30
0.0
  0
VERTEX
  8
0
  5
5B6
 10
7.32246
 20
0.86091
 30
0.0
  0
VERTEX
  8
0
  5
5B7
 10
7.341
 20
0.86058
 30
0.0
  0
VERTEX
  8
0
  5
5B8
 10
7.36172
 20
0.86024
 30
0.0
  0
VERTEX
  8
0
  5
5B9
 10
7.38386
 20
0.85986
 30
0.0
  0
VERTEX
  8
0
  5
5BA
 10
7.40675
 20
0.85949
 30
0.0
  0
VERTEX
  8
0
  5
5BB
 10
7.42961
 20
0.8591
 30
0.0
  0
VERTEX
  8
0
  5
5BC
 10
7.45176
 20
0.85872
 30
0.0
  0
VERTEX
  8
0
  5
5BD
 10
7.47247
 20
0.85836
 30
0.0
  0
VERTEX
  8
0
  5
5BE
 10
7.49104
 20
0.85806
 30
0.0
  0
VERTEX
  8
0
  5
5BF
 10
7.50672
 20
0.85779
 30
0.0
  0
VERTEX
  8
0
  5
5C0
 10
7.51881
 20
0.8576
 30
0.0
  0
VERTEX
  8
0
  5
5C1
 10
7.5266
 20
0.85747
 30
0.0
  0
VERTEX
  8
0
  5
5C2
 10
7.52936
 20
0.85743
 30
0.0
  0
VERTEX
  8
0
  5
5C3
 10
7.5295
 20
0.85597
 30
0.0
  0
VERTEX
  8
0
  5
5C4
 10
7.52991
 20
0.85187
 30
0.0
  0
VERTEX
  8
0
  5
5C5
 10
7.53055
 20
0.84549
 30
0.0
  0
VERTEX
  8
0
  5
5C6
 10
7.53139
 20
0.83723
 30
0.0
  0
VERTEX
  8
0
  5
5C7
 10
7.53237
 20
0.82744
 30
0.0
  0
VERTEX
  8
0
  5
5C8
 10
7.53347
 20
0.81652
 30
0.0
  0
VERTEX
  8
0
  5
5C9
 10
7.53464
 20
0.80484
 30
0.0
  0
VERTEX
  8
0
  5
5CA
 10
7.53587
 20
0.79279
 30
0.0
  0
VERTEX
  8
0
  5
5CB
 10
7.53707
 20
0.78073
 30
0.0
  0
VERTEX
  8
0
  5
5CC
 10
7.53825
 20
0.76905
 30
0.0
  0
VERTEX
  8
0
  5
5CD
 10
7.53935
 20
0.75813
 30
0.0
  0
VERTEX
  8
0
  5
5CE
 10
7.54035
 20
0.74835
 30
0.0
  0
VERTEX
  8
0
  5
5CF
 10
7.54117
 20
0.74007
 30
0.0
  0
VERTEX
  8
0
  5
5D0
 10
7.54182
 20
0.7337
 30
0.0
  0
VERTEX
  8
0
  5
5D1
 10
7.54223
 20
0.72959
 30
0.0
  0
VERTEX
  8
0
  5
5D2
 10
7.54239
 20
0.72815
 30
0.0
  0
VERTEX
  8
0
  5
5D3
 10
7.54438
 20
0.72812
 30
0.0
  0
VERTEX
  8
0
  5
5D4
 10
7.55002
 20
0.72804
 30
0.0
  0
VERTEX
  8
0
  5
5D5
 10
7.55878
 20
0.72791
 30
0.0
  0
VERTEX
  8
0
  5
5D6
 10
7.57016
 20
0.72775
 30
0.0
  0
VERTEX
  8
0
  5
5D7
 10
7.5836
 20
0.72755
 30
0.0
  0
VERTEX
  8
0
  5
5D8
 10
7.59863
 20
0.72734
 30
0.0
  0
VERTEX
  8
0
  5
5D9
 10
7.61469
 20
0.7271
 30
0.0
  0
VERTEX
  8
0
  5
5DA
 10
7.63128
 20
0.72689
 30
0.0
  0
VERTEX
  8
0
  5
5DB
 10
7.64785
 20
0.72665
 30
0.0
  0
VERTEX
  8
0
  5
5DC
 10
7.66391
 20
0.72642
 30
0.0
  0
VERTEX
  8
0
  5
5DD
 10
7.67892
 20
0.7262
 30
0.0
  0
VERTEX
  8
0
  5
5DE
 10
7.69239
 20
0.72601
 30
0.0
  0
VERTEX
  8
0
  5
5DF
 10
7.70375
 20
0.72584
 30
0.0
  0
VERTEX
  8
0
  5
5E0
 10
7.71253
 20
0.72572
 30
0.0
  0
VERTEX
  8
0
  5
5E1
 10
7.71817
 20
0.72564
 30
0.0
  0
VERTEX
  8
0
  5
5E2
 10
7.72018
 20
0.72563
 30
0.0
  0
VERTEX
  8
0
  5
5E3
 10
7.73064
 20
0.7196
 30
0.0
  0
VERTEX
  8
0
  5
5E4
 10
7.74022
 20
0.70276
 30
0.0
  0
VERTEX
  8
0
  5
5E5
 10
7.74931
 20
0.67643
 30
0.0
  0
VERTEX
  8
0
  5
5E6
 10
7.75837
 20
0.64196
 30
0.0
  0
VERTEX
  8
0
  5
5E7
 10
7.76781
 20
0.60066
 30
0.0
  0
VERTEX
  8
0
  5
5E8
 10
7.77808
 20
0.5539
 30
0.0
  0
VERTEX
  8
0
  5
5E9
 10
7.7896
 20
0.503
 30
0.0
  0
VERTEX
  8
0
  5
5EA
 10
7.80281
 20
0.44932
 30
0.0
  0
VERTEX
  8
0
  5
5EB
 10
7.81812
 20
0.39416
 30
0.0
  0
VERTEX
  8
0
  5
5EC
 10
7.83598
 20
0.3389
 30
0.0
  0
VERTEX
  8
0
  5
5ED
 10
7.85681
 20
0.28484
 30
0.0
  0
VERTEX
  8
0
  5
5EE
 10
7.88107
 20
0.23336
 30
0.0
  0
VERTEX
  8
0
  5
5EF
 10
7.90916
 20
0.18576
 30
0.0
  0
VERTEX
  8
0
  5
5F0
 10
7.94152
 20
0.1434
 30
0.0
  0
VERTEX
  8
0
  5
5F1
 10
7.97858
 20
0.10761
 30
0.0
  0
VERTEX
  8
0
  5
5F2
 10
8.02079
 20
0.07975
 30
0.0
  0
VERTEX
  8
0
  5
5F3
 10
8.24125
 20
-0.05261
 30
0.0
  0
VERTEX
  8
0
  5
5F4
 10
8.40476
 20
-0.1861
 30
0.0
  0
VERTEX
  8
0
  5
5F5
 10
8.51591
 20
-0.3181
 30
0.0
  0
VERTEX
  8
0
  5
5F6
 10
8.57932
 20
-0.44602
 30
0.0
  0
VERTEX
  8
0
  5
5F7
 10
8.59954
 20
-0.56721
 30
0.0
  0
VERTEX
  8
0
  5
5F8
 10
8.58121
 20
-0.6791
 30
0.0
  0
VERTEX
  8
0
  5
5F9
 10
8.5289
 20
-0.77906
 30
0.0
  0
VERTEX
  8
0
  5
5FA
 10
8.44723
 20
-0.8645
 30
0.0
  0
VERTEX
  8
0
  5
5FB
 10
8.34076
 20
-0.93277
 30
0.0
  0
VERTEX
  8
0
  5
5FC
 10
8.21413
 20
-0.9813
 30
0.0
  0
VERTEX
  8
0
  5
5FD
 10
8.0719
 20
-1.00746
 30
0.0
  0
VERTEX
  8
0
  5
5FE
 10
7.91871
 20
-1.00866
 30
0.0
  0
VERTEX
  8
0
  5
5FF
 10
7.7591
 20
-0.98226
 30
0.0
  0
VERTEX
  8
0
  5
600
 10
7.59772
 20
-0.92568
 30
0.0
  0
VERTEX
  8
0
  5
601
 10
7.43914
 20
-0.8363
 30
0.0
  0
VERTEX
  8
0
  5
602
 10
7.28798
 20
-0.71151
 30
0.0
  0
VERTEX
  8
0
  5
603
 10
7.13645
 20
-0.8363
 30
0.0
  0
VERTEX
  8
0
  5
604
 10
6.97689
 20
-0.92568
 30
0.0
  0
VERTEX
  8
0
  5
605
 10
6.81399
 20
-0.98226
 30
0.0
  0
VERTEX
  8
0
  5
606
 10
6.65245
 20
-1.00866
 30
0.0
  0
VERTEX
  8
0
  5
607
 10
6.49692
 20
-1.00746
 30
0.0
  0
VERTEX
  8
0
  5
608
 10
6.35212
 20
-0.9813
 30
0.0
  0
VERTEX
  8
0
  5
609
 10
6.22271
 20
-0.93277
 30
0.0
  0
VERTEX
  8
0
  5
60A
 10
6.11342
 20
-0.8645
 30
0.0
  0
VERTEX
  8
0
  5
60B
 10
6.02888
 20
-0.77906
 30
0.0
  0
VERTEX
  8
0
  5
60C
 10
5.97381
 20
-0.6791
 30
0.0
  0
VERTEX
  8
0
  5
60D
 10
5.95289
 20
-0.56721
 30
0.0
  0
VERTEX
  8
0
  5
60E
 10
5.97081
 20
-0.44602
 30
0.0
  0
VERTEX
  8
0
  5
60F
 10
6.03224
 20
-0.3181
 30
0.0
  0
VERTEX
  8
0
  5
610
 10
6.1419
 20
-0.1861
 30
0.0
  0
VERTEX
  8
0
  5
611
 10
6.30445
 20
-0.05261
 30
0.0
  0
VERTEX
  8
0
  5
612
 10
6.52459
 20
0.07975
 30
0.0
  0
VERTEX
  8
0
  5
613
 10
6.56703
 20
0.10761
 30
0.0
  0
VERTEX
  8
0
  5
614
 10
6.60482
 20
0.1434
 30
0.0
  0
VERTEX
  8
0
  5
615
 10
6.6383
 20
0.18576
 30
0.0
  0
VERTEX
  8
0
  5
616
 10
6.66786
 20
0.23336
 30
0.0
  0
VERTEX
  8
0
  5
617
 10
6.69383
 20
0.28484
 30
0.0
  0
VERTEX
  8
0
  5
618
 10
6.71662
 20
0.3389
 30
0.0
  0
VERTEX
  8
0
  5
619
 10
6.73655
 20
0.39416
 30
0.0
  0
VERTEX
  8
0
  5
61A
 10
6.75401
 20
0.44932
 30
0.0
  0
VERTEX
  8
0
  5
61B
 10
6.76934
 20
0.503
 30
0.0
  0
VERTEX
  8
0
  5
61C
 10
6.78293
 20
0.5539
 30
0.0
  0
VERTEX
  8
0
  5
61D
 10
6.79513
 20
0.60066
 30
0.0
  0
VERTEX
  8
0
  5
61E
 10
6.80632
 20
0.64196
 30
0.0
  0
VERTEX
  8
0
  5
61F
 10
6.81684
 20
0.67643
 30
0.0
  0
VERTEX
  8
0
  5
620
 10
6.82707
 20
0.70276
 30
0.0
  0
VERTEX
  8
0
  5
621
 10
6.83737
 20
0.7196
 30
0.0
  0
VERTEX
  8
0
  5
622
 10
6.84812
 20
0.72563
 30
0.0
  0
VERTEX
  8
0
  5
623
 10
6.85011
 20
0.72564
 30
0.0
  0
VERTEX
  8
0
  5
624
 10
6.85575
 20
0.72572
 30
0.0
  0
VERTEX
  8
0
  5
625
 10
6.86451
 20
0.72584
 30
0.0
  0
VERTEX
  8
0
  5
626
 10
6.87589
 20
0.72601
 30
0.0
  0
VERTEX
  8
0
  5
627
 10
6.88933
 20
0.7262
 30
0.0
  0
VERTEX
  8
0
  5
628
 10
6.90436
 20
0.72642
 30
0.0
  0
VERTEX
  8
0
  5
629
 10
6.92042
 20
0.72665
 30
0.0
  0
VERTEX
  8
0
  5
62A
 10
6.93701
 20
0.72689
 30
0.0
  0
VERTEX
  8
0
  5
62B
 10
6.95358
 20
0.7271
 30
0.0
  0
VERTEX
  8
0
  5
62C
 10
6.96964
 20
0.72734
 30
0.0
  0
VERTEX
  8
0
  5
62D
 10
6.98465
 20
0.72755
 30
0.0
  0
VERTEX
  8
0
  5
62E
 10
6.99812
 20
0.72775
 30
0.0
  0
VERTEX
  8
0
  5
62F
 10
7.00948
 20
0.72791
 30
0.0
  0
VERTEX
  8
0
  5
630
 10
7.01826
 20
0.72804
 30
0.0
  0
VERTEX
  8
0
  5
631
 10
7.0239
 20
0.72812
 30
0.0
  0
VERTEX
  8
0
  5
632
 10
7.02591
 20
0.72815
 30
0.0
  0
VERTEX
  8
0
  5
633
 10
7.02605
 20
0.72959
 30
0.0
  0
VERTEX
  8
0
  5
634
 10
7.02646
 20
0.7337
 30
0.0
  0
VERTEX
  8
0
  5
635
 10
7.0271
 20
0.74007
 30
0.0
  0
VERTEX
  8
0
  5
636
 10
7.02794
 20
0.74835
 30
0.0
  0
VERTEX
  8
0
  5
637
 10
7.02892
 20
0.75813
 30
0.0
  0
VERTEX
  8
0
  5
638
 10
7.03002
 20
0.76905
 30
0.0
  0
VERTEX
  8
0
  5
639
 10
7.03119
 20
0.78073
 30
0.0
  0
VERTEX
  8
0
  5
63A
 10
7.03242
 20
0.79279
 30
0.0
  0
VERTEX
  8
0
  5
63B
 10
7.03362
 20
0.80484
 30
0.0
  0
VERTEX
  8
0
  5
63C
 10
7.0348
 20
0.81652
 30
0.0
  0
VERTEX
  8
0
  5
63D
 10
7.0359
 20
0.82744
 30
0.0
  0
VERTEX
  8
0
  5
63E
 10
7.0369
 20
0.83723
 30
0.0
  0
VERTEX
  8
0
  5
63F
 10
7.03772
 20
0.84549
 30
0.0
  0
VERTEX
  8
0
  5
640
 10
7.03837
 20
0.85187
 30
0.0
  0
VERTEX
  8
0
  5
641
 10
7.03878
 20
0.85597
 30
0.0
  0
VERTEX
  8
0
  5
642
 10
7.03894
 20
0.85743
 30
0.0
  0
VERTEX
  8
0
  5
643
 10
7.04168
 20
0.85747
 30
0.0
  0
VERTEX
  8
0
  5
644
 10
7.04947
 20
0.8576
 30
0.0
  0
VERTEX
  8
0
  5
645
 10
7.06156
 20
0.85779
 30
0.0
  0
VERTEX
  8
0
  5
646
 10
7.07725
 20
0.85806
 30
0.0
  0
VERTEX
  8
0
  5
647
 10
7.09579
 20
0.85836
 30
0.0
  0
VERTEX
  8
0
  5
648
 10
7.11651
 20
0.85872
 30
0.0
  0
VERTEX
  8
0
  5
649
 10
7.13865
 20
0.8591
 30
0.0
  0
VERTEX
  8
0
  5
64A
 10
7.16154
 20
0.85949
 30
0.0
  0
VERTEX
  8
0
  5
64B
 10
7.1844
 20
0.85986
 30
0.0
  0
VERTEX
  8
0
  5
64C
 10
7.20655
 20
0.86024
 30
0.0
  0
VERTEX
  8
0
  5
64D
 10
7.22726
 20
0.86058
 30
0.0
  0
VERTEX
  8
0
  5
64E
 10
7.24583
 20
0.86091
 30
0.0
  0
VERTEX
  8
0
  5
64F
 10
7.26151
 20
0.86116
 30
0.0
  0
VERTEX
  8
0
  5
650
 10
7.2736
 20
0.86137
 30
0.0
  0
VERTEX
  8
0
  5
651
 10
7.28139
 20
0.8615
 30
0.0
  0
SEQEND
  8
0
  5
652
  0
POLYLINE
  8
0
  5
653
 66
     1
 10
0.0
 20
0.0
 30
0.0
  0
VERTEX
  8
0
  5
654
 10
-8.24165
 20
3.54558
 30
0.0
  0
VERTEX
  8
0
  5
655
 10
-8.24165
 20
3.54558
 30
0.0
  0
VERTEX
  8
0
  5
656
 10
-8.21054
 20
3.54399
 30
0.0
  0
VERTEX
  8
0
  5
657
 10
-8.18032
 20
3.53935
 30
0.0
  0
VERTEX
  8
0
  5
658
 10
-8.15113
 20
3.53181
 30
0.0
  0
VERTEX
  8
0
  5
659
 10
-8.12315
 20
3.52154
 30
0.0
  0
VERTEX
  8
0
  5
65A
 10
-8.0965
 20
3.50867
 30
0.0
  0
VERTEX
  8
0
  5
65B
 10
-8.07136
 20
3.49337
 30
0.0
  0
VERTEX
  8
0
  5
65C
 10
-8.04787
 20
3.47578
 30
0.0
  0
VERTEX
  8
0
  5
65D
 10
-8.02621
 20
3.45609
 30
0.0
  0
VERTEX
  8
0
  5
65E
 10
-8.0065
 20
3.4344
 30
0.0
  0
VERTEX
  8
0
  5
65F
 10
-7.98892
 20
3.41092
 30
0.0
  0
VERTEX
  8
0
  5
660
 10
-7.97361
 20
3.38578
 30
0.0
  0
VERTEX
  8
0
  5
661
 10
-7.96075
 20
3.35914
 30
0.0
  0
VERTEX
  8
0
  5
662
 10
-7.95046
 20
3.33114
 30
0.0
  0
VERTEX
  8
0
  5
663
 10
-7.94294
 20
3.30196
 30
0.0
  0
VERTEX
  8
0
  5
664
 10
-7.9383
 20
3.27174
 30
0.0
  0
VERTEX
  8
0
  5
665
 10
-7.93673
 20
3.24066
 30
0.0
  0
VERTEX
  8
0
  5
666
 10
-7.9383
 20
3.20955
 30
0.0
  0
VERTEX
  8
0
  5
667
 10
-7.94294
 20
3.17933
 30
0.0
  0
VERTEX
  8
0
  5
668
 10
-7.95046
 20
3.15014
 30
0.0
  0
VERTEX
  8
0
  5
669
 10
-7.96075
 20
3.12216
 30
0.0
  0
VERTEX
  8
0
  5
66A
 10
-7.97361
 20
3.09551
 30
0.0
  0
VERTEX
  8
0
  5
66B
 10
-7.98892
 20
3.07037
 30
0.0
  0
VERTEX
  8
0
  5
66C
 10
-8.0065
 20
3.04688
 30
0.0
  0
VERTEX
  8
0
  5
66D
 10
-8.02621
 20
3.02522
 30
0.0
  0
VERTEX
  8
0
  5
66E
 10
-8.04787
 20
3.00551
 30
0.0
  0
VERTEX
  8
0
  5
66F
 10
-8.07136
 20
2.98793
 30
0.0
  0
VERTEX
  8
0
  5
670
 10
-8.0965
 20
2.97262
 30
0.0
  0
VERTEX
  8
0
  5
671
 10
-8.12315
 20
2.95977
 30
0.0
  0
VERTEX
  8
0
  5
672
 10
-8.15113
 20
2.94948
 30
0.0
  0
VERTEX
  8
0
  5
673
 10
-8.18032
 20
2.94196
 30
0.0
  0
VERTEX
  8
0
  5
674
 10
-8.21054
 20
2.93732
 30
0.0
  0
VERTEX
  8
0
  5
675
 10
-8.24165
 20
2.93575
 30
0.0
  0
VERTEX
  8
0
  5
676
 10
-8.27273
 20
2.93732
 30
0.0
  0
VERTEX
  8
0
  5
677
 10
-8.30295
 20
2.94196
 30
0.0
  0
VERTEX
  8
0
  5
678
 10
-8.33212
 20
2.94948
 30
0.0
  0
VERTEX
  8
0
  5
679
 10
-8.36012
 20
2.95977
 30
0.0
  0
VERTEX
  8
0
  5
67A
 10
-8.38676
 20
2.97262
 30
0.0
  0
VERTEX
  8
0
  5
67B
 10
-8.4119
 20
2.98793
 30
0.0
  0
VERTEX
  8
0
  5
67C
 10
-8.43538
 20
3.00551
 30
0.0
  0
VERTEX
  8
0
  5
67D
 10
-8.45707
 20
3.02522
 30
0.0
  0
VERTEX
  8
0
  5
67E
 10
-8.47676
 20
3.04688
 30
0.0
  0
VERTEX
  8
0
  5
67F
 10
-8.49435
 20
3.07037
 30
0.0
  0
VERTEX
  8
0
  5
680
 10
-8.50965
 20
3.09551
 30
0.0
  0
VERTEX
  8
0
  5
681
 10
-8.52252
 20
3.12216
 30
0.0
  0
VERTEX
  8
0
  5
682
 10
-8.53279
 20
3.15014
 30
0.0
  0
VERTEX
  8
0
  5
683
 10
-8.54033
 20
3.17933
 30
0.0
  0
VERTEX
  8
0
  5
684
 10
-8.54497
 20
3.20955
 30
0.0
  0
VERTEX
  8
0
  5
685
 10
-8.54656
 20
3.24066
 30
0.0
  0
VERTEX
  8
0
  5
686
 10
-8.54497
 20
3.27174
 30
0.0
  0
VERTEX
  8
0
  5
687
 10
-8.54033
 20
3.30196
 30
0.0
  0
VERTEX
  8
0
  5
688
 10
-8.53279
 20
3.33114
 30
0.0
  0
VERTEX
  8
0
  5
689
 10
-8.52252
 20
3.35914
 30
0.0
  0
VERTEX
  8
0
  5
68A
 10
-8.50965
 20
3.38578
 30
0.0
  0
VERTEX
  8
0
  5
68B
 10
-8.49435
 20
3.41092
 30
0.0
  0
VERTEX
  8
0
  5
68C
 10
-8.47676
 20
3.4344
 30
0.0
  0
VERTEX
  8
0
  5
68D
 10
-8.45707
 20
3.45609
 30
0.0
  0
VERTEX
  8
0
  5
68E
 10
-8.43538
 20
3.47578
 30
0.0
  0
VERTEX
  8
0
  5
68F
 10
-8.4119
 20
3.49337
 30
0.0
  0
VERTEX
  8
0
  5
690
 10
-8.38676
 20
3.50867
 30
0.0
  0
VERTEX
  8
0
  5
691
 10
-8.36012
 20
3.52154
 30
0.0
  0
VERTEX
  8
0
  5
692
 10
-8.33212
 20
3.53181
 30
0.0
  0
VERTEX
  8
0
  5
693
 10
-8.30295
 20
3.53935
 30
0.0
  0
VERTEX
  8
0
  5
694
 10
-8.27273
 20
3.54399
 30
0.0
  0
SEQEND
  8
0
  5
695
  0
POLYLINE
  8
0
  5
696
 66
     1
 10
0.0
 20
0.0
 30
0.0
  0
VERTEX
  8
0
  5
697
 10
0.37441
 20
-0.39074
 30
0.0
  0
VERTEX
  8
0
  5
698
 10
0.37441
 20
-0.39074
 30
0.0
  0
VERTEX
  8
0
  5
699
 10
0.67968
 20
-0.40846
 30
0.0
  0
VERTEX
  8
0
  5
69A
 10
0.94916
 20
-0.45402
 30
0.0
  0
VERTEX
  8
0
  5
69B
 10
1.18532
 20
-0.52439
 30
0.0
  0
VERTEX
  8
0
  5
69C
 10
1.39067
 20
-0.61656
 30
0.0
  0
VERTEX
  8
0
  5
69D
 10
1.56766
 20
-0.72748
 30
0.0
  0
VERTEX
  8
0
  5
69E
 10
1.71883
 20
-0.8542
 30
0.0
  0
VERTEX
  8
0
  5
69F
 10
1.84663
 20
-0.99366
 30
0.0
  0
VERTEX
  8
0
  5
6A0
 10
1.95357
 20
-1.14288
 30
0.0
  0
VERTEX
  8
0
  5
6A1
 10
2.0421
 20
-1.2988
 30
0.0
  0
VERTEX
  8
0
  5
6A2
 10
2.11476
 20
-1.45845
 30
0.0
  0
VERTEX
  8
0
  5
6A3
 10
2.174
 20
-1.6188
 30
0.0
  0
VERTEX
  8
0
  5
6A4
 10
2.22233
 20
-1.77685
 30
0.0
  0
VERTEX
  8
0
  5
6A5
 10
2.26222
 20
-1.92956
 30
0.0
  0
VERTEX
  8
0
  5
6A6
 10
2.29617
 20
-2.07395
 30
0.0
  0
VERTEX
  8
0
  5
6A7
 10
2.32667
 20
-2.20698
 30
0.0
  0
VERTEX
  8
0
  5
6A8
 10
2.35621
 20
-2.32567
 30
0.0
  0
VERTEX
  8
0
  5
6A9
 10
2.3688
 20
-2.36069
 30
0.0
  0
VERTEX
  8
0
  5
6AA
 10
2.38621
 20
-2.39224
 30
0.0
  0
VERTEX
  8
0
  5
6AB
 10
2.40774
 20
-2.42043
 30
0.0
  0
VERTEX
  8
0
  5
6AC
 10
2.43273
 20
-2.4454
 30
0.0
  0
VERTEX
  8
0
  5
6AD
 10
2.46046
 20
-2.46727
 30
0.0
  0
VERTEX
  8
0
  5
6AE
 10
2.49029
 20
-2.48622
 30
0.0
  0
VERTEX
  8
0
  5
6AF
 10
2.5215
 20
-2.50235
 30
0.0
  0
VERTEX
  8
0
  5
6B0
 10
2.55342
 20
-2.51581
 30
0.0
  0
VERTEX
  8
0
  5
6B1
 10
2.58534
 20
-2.5267
 30
0.0
  0
VERTEX
  8
0
  5
6B2
 10
2.6166
 20
-2.53521
 30
0.0
  0
VERTEX
  8
0
  5
6B3
 10
2.64651
 20
-2.54144
 30
0.0
  0
VERTEX
  8
0
  5
6B4
 10
2.67439
 20
-2.54556
 30
0.0
  0
VERTEX
  8
0
  5
6B5
 10
2.69953
 20
-2.54765
 30
0.0
  0
VERTEX
  8
0
  5
6B6
 10
2.72127
 20
-2.5479
 30
0.0
  0
VERTEX
  8
0
  5
6B7
 10
2.73891
 20
-2.54642
 30
0.0
  0
VERTEX
  8
0
  5
6B8
 10
2.75179
 20
-2.54336
 30
0.0
  0
VERTEX
  8
0
  5
6B9
 10
2.97356
 20
-2.40415
 30
0.0
  0
VERTEX
  8
0
  5
6BA
 10
3.13496
 20
-2.18345
 30
0.0
  0
VERTEX
  8
0
  5
6BB
 10
3.24601
 20
-1.89089
 30
0.0
  0
VERTEX
  8
0
  5
6BC
 10
3.31678
 20
-1.53611
 30
0.0
  0
VERTEX
  8
0
  5
6BD
 10
3.3573
 20
-1.12872
 30
0.0
  0
VERTEX
  8
0
  5
6BE
 10
3.37765
 20
-0.67837
 30
0.0
  0
VERTEX
  8
0
  5
6BF
 10
3.38786
 20
-0.19467
 30
0.0
  0
VERTEX
  8
0
  5
6C0
 10
3.398
 20
0.31273
 30
0.0
  0
VERTEX
  8
0
  5
6C1
 10
3.41809
 20
0.8342
 30
0.0
  0
VERTEX
  8
0
  5
6C2
 10
3.45821
 20
1.36014
 30
0.0
  0
VERTEX
  8
0
  5
6C3
 10
3.52839
 20
1.88089
 30
0.0
  0
VERTEX
  8
0
  5
6C4
 10
3.63871
 20
2.38685
 30
0.0
  0
VERTEX
  8
0
  5
6C5
 10
3.79919
 20
2.86835
 30
0.0
  0
VERTEX
  8
0
  5
6C6
 10
4.01991
 20
3.3158
 30
0.0
  0
VERTEX
  8
0
  5
6C7
 10
4.31089
 20
3.71954
 30
0.0
  0
VERTEX
  8
0
  5
6C8
 10
4.68221
 20
4.06996
 30
0.0
  0
VERTEX
  8
0
  5
6C9
 10
4.96088
 20
4.26693
 30
0.0
  0
VERTEX
  8
0
  5
6CA
 10
5.23569
 20
4.42659
 30
0.0
  0
VERTEX
  8
0
  5
6CB
 10
5.50539
 20
4.5516
 30
0.0
  0
VERTEX
  8
0
  5
6CC
 10
5.7688
 20
4.64463
 30
0.0
  0
VERTEX
  8
0
  5
6CD
 10
6.02468
 20
4.70832
 30
0.0
  0
VERTEX
  8
0
  5
6CE
 10
6.27185
 20
4.74539
 30
0.0
  0
VERTEX
  8
0
  5
6CF
 10
6.50909
 20
4.75847
 30
0.0
  0
VERTEX
  8
0
  5
6D0
 10
6.73519
 20
4.75024
 30
0.0
  0
VERTEX
  8
0
  5
6D1
 10
6.94892
 20
4.72336
 30
0.0
  0
VERTEX
  8
0
  5
6D2
 10
7.1491
 20
4.68051
 30
0.0
  0
VERTEX
  8
0
  5
6D3
 10
7.33449
 20
4.62435
 30
0.0
  0
VERTEX
  8
0
  5
6D4
 10
7.50392
 20
4.55757
 30
0.0
  0
VERTEX
  8
0
  5
6D5
 10
7.65614
 20
4.48281
 30
0.0
  0
VERTEX
  8
0
  5
6D6
 10
7.78997
 20
4.40276
 30
0.0
  0
VERTEX
  8
0
  5
6D7
 10
7.90419
 20
4.32007
 30
0.0
  0
VERTEX
  8
0
  5
6D8
 10
7.99759
 20
4.23744
 30
0.0
  0
VERTEX
  8
0
  5
6D9
 10
8.00895
 20
4.24187
 30
0.0
  0
VERTEX
  8
0
  5
6DA
 10
8.02631
 20
4.26806
 30
0.0
  0
VERTEX
  8
0
  5
6DB
 10
8.04907
 20
4.31107
 30
0.0
  0
VERTEX
  8
0
  5
6DC
 10
8.07667
 20
4.36599
 30
0.0
  0
VERTEX
  8
0
  5
6DD
 10
8.10847
 20
4.42784
 30
0.0
  0
VERTEX
  8
0
  5
6DE
 10
8.14393
 20
4.49172
 30
0.0
  0
VERTEX
  8
0
  5
6DF
 10
8.18242
 20
4.55269
 30
0.0
  0
VERTEX
  8
0
  5
6E0
 10
8.22339
 20
4.60581
 30
0.0
  0
VERTEX
  8
0
  5
6E1
 10
8.2662
 20
4.64614
 30
0.0
  0
VERTEX
  8
0
  5
6E2
 10
8.31029
 20
4.66877
 30
0.0
  0
VERTEX
  8
0
  5
6E3
 10
8.35506
 20
4.66874
 30
0.0
  0
VERTEX
  8
0
  5
6E4
 10
8.39995
 20
4.64115
 30
0.0
  0
VERTEX
  8
0
  5
6E5
 10
8.44432
 20
4.58103
 30
0.0
  0
VERTEX
  8
0
  5
6E6
 10
8.48762
 20
4.48348
 30
0.0
  0
VERTEX
  8
0
  5
6E7
 10
8.52923
 20
4.34355
 30
0.0
  0
VERTEX
  8
0
  5
6E8
 10
8.56859
 20
4.15632
 30
0.0
  0
VERTEX
  8
0
  5
6E9
 10
8.63409
 20
4.2085
 30
0.0
  0
VERTEX
  8
0
  5
6EA
 10
8.71241
 20
4.25745
 30
0.0
  0
VERTEX
  8
0
  5
6EB
 10
8.80122
 20
4.30172
 30
0.0
  0
VERTEX
  8
0
  5
6EC
 10
8.89824
 20
4.33989
 30
0.0
  0
VERTEX
  8
0
  5
6ED
 10
9.00111
 20
4.37051
 30
0.0
  0
VERTEX
  8
0
  5
6EE
 10
9.10757
 20
4.3922
 30
0.0
  0
VERTEX
  8
0
  5
6EF
 10
9.21529
 20
4.40348
 30
0.0
  0
VERTEX
  8
0
  5
6F0
 10
9.32199
 20
4.40296
 30
0.0
  0
VERTEX
  8
0
  5
6F1
 10
9.42532
 20
4.38917
 30
0.0
  0
VERTEX
  8
0
  5
6F2
 10
9.523
 20
4.36072
 30
0.0
  0
VERTEX
  8
0
  5
6F3
 10
9.61272
 20
4.31616
 30
0.0
  0
VERTEX
  8
0
  5
6F4
 10
9.69218
 20
4.25409
 30
0.0
  0
VERTEX
  8
0
  5
6F5
 10
9.75904
 20
4.17304
 30
0.0
  0
VERTEX
  8
0
  5
6F6
 10
9.81103
 20
4.07161
 30
0.0
  0
VERTEX
  8
0
  5
6F7
 10
9.84583
 20
3.94836
 30
0.0
  0
VERTEX
  8
0
  5
6F8
 10
9.86114
 20
3.80187
 30
0.0
  0
VERTEX
  8
0
  5
6F9
 10
9.92488
 20
3.82314
 30
0.0
  0
VERTEX
  8
0
  5
6FA
 10
9.983
 20
3.8482
 30
0.0
  0
VERTEX
  8
0
  5
6FB
 10
10.03594
 20
3.87604
 30
0.0
  0
VERTEX
  8
0
  5
6FC
 10
10.08423
 20
3.90575
 30
0.0
  0
VERTEX
  8
0
  5
6FD
 10
10.12829
 20
3.93633
 30
0.0
  0
VERTEX
  8
0
  5
6FE
 10
10.16863
 20
3.96686
 30
0.0
  0
VERTEX
  8
0
  5
6FF
 10
10.20571
 20
3.99634
 30
0.0
  0
VERTEX
  8
0
  5
700
 10
10.24005
 20
4.02387
 30
0.0
  0
VERTEX
  8
0
  5
701
 10
10.27206
 20
4.04843
 30
0.0
  0
VERTEX
  8
0
  5
702
 10
10.30228
 20
4.06909
 30
0.0
  0
VERTEX
  8
0
  5
703
 10
10.33115
 20
4.0849
 30
0.0
  0
VERTEX
  8
0
  5
704
 10
10.35919
 20
4.09491
 30
0.0
  0
VERTEX
  8
0
  5
705
 10
10.38682
 20
4.09813
 30
0.0
  0
VERTEX
  8
0
  5
706
 10
10.41458
 20
4.09363
 30
0.0
  0
VERTEX
  8
0
  5
707
 10
10.44291
 20
4.08045
 30
0.0
  0
VERTEX
  8
0
  5
708
 10
10.47231
 20
4.05762
 30
0.0
  0
VERTEX
  8
0
  5
709
 10
10.55163
 20
3.97341
 30
0.0
  0
VERTEX
  8
0
  5
70A
 10
10.61207
 20
3.88854
 30
0.0
  0
VERTEX
  8
0
  5
70B
 10
10.65759
 20
3.80313
 30
0.0
  0
VERTEX
  8
0
  5
70C
 10
10.6922
 20
3.71732
 30
0.0
  0
VERTEX
  8
0
  5
70D
 10
10.71984
 20
3.63121
 30
0.0
  0
VERTEX
  8
0
  5
70E
 10
10.74451
 20
3.54496
 30
0.0
  0
VERTEX
  8
0
  5
70F
 10
10.77016
 20
3.45868
 30
0.0
  0
VERTEX
  8
0
  5
710
 10
10.80079
 20
3.37253
 30
0.0
  0
VERTEX
  8
0
  5
711
 10
10.84035
 20
3.28659
 30
0.0
  0
VERTEX
  8
0
  5
712
 10
10.89284
 20
3.20102
 30
0.0
  0
VERTEX
  8
0
  5
713
 10
10.96221
 20
3.11594
 30
0.0
  0
VERTEX
  8
0
  5
714
 10
11.05248
 20
3.0315
 30
0.0
  0
VERTEX
  8
0
  5
715
 10
11.16758
 20
2.94778
 30
0.0
  0
VERTEX
  8
0
  5
716
 10
11.31151
 20
2.86497
 30
0.0
  0
VERTEX
  8
0
  5
717
 10
11.48822
 20
2.78315
 30
0.0
  0
VERTEX
  8
0
  5
718
 10
11.70173
 20
2.7025
 30
0.0
  0
VERTEX
  8
0
  5
719
 10
11.72788
 20
2.83276
 30
0.0
  0
VERTEX
  8
0
  5
71A
 10
11.77248
 20
2.95875
 30
0.0
  0
VERTEX
  8
0
  5
71B
 10
11.83364
 20
3.07806
 30
0.0
  0
VERTEX
  8
0
  5
71C
 10
11.90949
 20
3.18834
 30
0.0
  0
VERTEX
  8
0
  5
71D
 10
11.99811
 20
3.28716
 30
0.0
  0
VERTEX
  8
0
  5
71E
 10
12.09765
 20
3.3722
 30
0.0
  0
VERTEX
  8
0
  5
71F
 10
12.20621
 20
3.44104
 30
0.0
  0
VERTEX
  8
0
  5
720
 10
12.3219
 20
3.49133
 30
0.0
  0
VERTEX
  8
0
  5
721
 10
12.44282
 20
3.52065
 30
0.0
  0
VERTEX
  8
0
  5
722
 10
12.5671
 20
3.52666
 30
0.0
  0
VERTEX
  8
0
  5
723
 10
12.69285
 20
3.50695
 30
0.0
  0
VERTEX
  8
0
  5
724
 10
12.81821
 20
3.45917
 30
0.0
  0
VERTEX
  8
0
  5
725
 10
12.94124
 20
3.38091
 30
0.0
  0
VERTEX
  8
0
  5
726
 10
13.0601
 20
3.26982
 30
0.0
  0
VERTEX
  8
0
  5
727
 10
13.17289
 20
3.12351
 30
0.0
  0
VERTEX
  8
0
  5
728
 10
13.27773
 20
2.93961
 30
0.0
  0
VERTEX
  8
0
  5
729
 10
13.34823
 20
2.72098
 30
0.0
  0
VERTEX
  8
0
  5
72A
 10
13.34945
 20
2.50548
 30
0.0
  0
VERTEX
  8
0
  5
72B
 10
13.28941
 20
2.29661
 30
0.0
  0
VERTEX
  8
0
  5
72C
 10
13.17618
 20
2.09788
 30
0.0
  0
VERTEX
  8
0
  5
72D
 10
13.0178
 20
1.91276
 30
0.0
  0
VERTEX
  8
0
  5
72E
 10
12.82237
 20
1.74478
 30
0.0
  0
VERTEX
  8
0
  5
72F
 10
12.5979
 20
1.59742
 30
0.0
  0
VERTEX
  8
0
  5
730
 10
12.35249
 20
1.47421
 30
0.0
  0
VERTEX
  8
0
  5
731
 10
12.09415
 20
1.37861
 30
0.0
  0
VERTEX
  8
0
  5
732
 10
11.83096
 20
1.31415
 30
0.0
  0
VERTEX
  8
0
  5
733
 10
11.57098
 20
1.28431
 30
0.0
  0
VERTEX
  8
0
  5
734
 10
11.32228
 20
1.29263
 30
0.0
  0
VERTEX
  8
0
  5
735
 10
11.09289
 20
1.34256
 30
0.0
  0
VERTEX
  8
0
  5
736
 10
10.89088
 20
1.43763
 30
0.0
  0
VERTEX
  8
0
  5
737
 10
10.72431
 20
1.58134
 30
0.0
  0
VERTEX
  8
0
  5
738
 10
10.60125
 20
1.77719
 30
0.0
  0
VERTEX
  8
0
  5
739
 10
10.58381
 20
1.80527
 30
0.0
  0
VERTEX
  8
0
  5
73A
 10
10.56504
 20
1.81559
 30
0.0
  0
VERTEX
  8
0
  5
73B
 10
10.54505
 20
1.81052
 30
0.0
  0
VERTEX
  8
0
  5
73C
 10
10.52398
 20
1.79246
 30
0.0
  0
VERTEX
  8
0
  5
73D
 10
10.50195
 20
1.76376
 30
0.0
  0
VERTEX
  8
0
  5
73E
 10
10.47913
 20
1.72682
 30
0.0
  0
VERTEX
  8
0
  5
73F
 10
10.45562
 20
1.68402
 30
0.0
  0
VERTEX
  8
0
  5
740
 10
10.43158
 20
1.63775
 30
0.0
  0
VERTEX
  8
0
  5
741
 10
10.40711
 20
1.59036
 30
0.0
  0
VERTEX
  8
0
  5
742
 10
10.38238
 20
1.54427
 30
0.0
  0
VERTEX
  8
0
  5
743
 10
10.35752
 20
1.50184
 30
0.0
  0
VERTEX
  8
0
  5
744
 10
10.33267
 20
1.46547
 30
0.0
  0
VERTEX
  8
0
  5
745
 10
10.30794
 20
1.43751
 30
0.0
  0
VERTEX
  8
0
  5
746
 10
10.2835
 20
1.42038
 30
0.0
  0
VERTEX
  8
0
  5
747
 10
10.25945
 20
1.41643
 30
0.0
  0
VERTEX
  8
0
  5
748
 10
10.23595
 20
1.42807
 30
0.0
  0
VERTEX
  8
0
  5
749
 10
10.23584
 20
1.43337
 30
0.0
  0
VERTEX
  8
0
  5
74A
 10
10.23558
 20
1.4484
 30
0.0
  0
VERTEX
  8
0
  5
74B
 10
10.23516
 20
1.47173
 30
0.0
  0
VERTEX
  8
0
  5
74C
 10
10.23462
 20
1.50202
 30
0.0
  0
VERTEX
  8
0
  5
74D
 10
10.23397
 20
1.53783
 30
0.0
  0
VERTEX
  8
0
  5
74E
 10
10.23326
 20
1.57781
 30
0.0
  0
VERTEX
  8
0
  5
74F
 10
10.23249
 20
1.62057
 30
0.0
  0
VERTEX
  8
0
  5
750
 10
10.23171
 20
1.66473
 30
0.0
  0
VERTEX
  8
0
  5
751
 10
10.23091
 20
1.70886
 30
0.0
  0
VERTEX
  8
0
  5
752
 10
10.23015
 20
1.75162
 30
0.0
  0
VERTEX
  8
0
  5
753
 10
10.22943
 20
1.79159
 30
0.0
  0
VERTEX
  8
0
  5
754
 10
10.22879
 20
1.82742
 30
0.0
  0
VERTEX
  8
0
  5
755
 10
10.22824
 20
1.85769
 30
0.0
  0
VERTEX
  8
0
  5
756
 10
10.22783
 20
1.88104
 30
0.0
  0
VERTEX
  8
0
  5
757
 10
10.22757
 20
1.89607
 30
0.0
  0
VERTEX
  8
0
  5
758
 10
10.22748
 20
1.90139
 30
0.0
  0
VERTEX
  8
0
  5
759
 10
10.11634
 20
1.86647
 30
0.0
  0
VERTEX
  8
0
  5
75A
 10
9.99262
 20
1.84011
 30
0.0
  0
VERTEX
  8
0
  5
75B
 10
9.85867
 20
1.82266
 30
0.0
  0
VERTEX
  8
0
  5
75C
 10
9.71687
 20
1.81456
 30
0.0
  0
VERTEX
  8
0
  5
75D
 10
9.56955
 20
1.81615
 30
0.0
  0
VERTEX
  8
0
  5
75E
 10
9.41914
 20
1.82787
 30
0.0
  0
VERTEX
  8
0
  5
75F
 10
9.26797
 20
1.85011
 30
0.0
  0
VERTEX
  8
0
  5
760
 10
9.11843
 20
1.88326
 30
0.0
  0
VERTEX
  8
0
  5
761
 10
8.97286
 20
1.9277
 30
0.0
  0
VERTEX
  8
0
  5
762
 10
8.83367
 20
1.98385
 30
0.0
  0
VERTEX
  8
0
  5
763
 10
8.7032
 20
2.0521
 30
0.0
  0
VERTEX
  8
0
  5
764
 10
8.58384
 20
2.13285
 30
0.0
  0
VERTEX
  8
0
  5
765
 10
8.47794
 20
2.22648
 30
0.0
  0
VERTEX
  8
0
  5
766
 10
8.38789
 20
2.33341
 30
0.0
  0
VERTEX
  8
0
  5
767
 10
8.31604
 20
2.45401
 30
0.0
  0
VERTEX
  8
0
  5
768
 10
8.2648
 20
2.58871
 30
0.0
  0
VERTEX
  8
0
  5
769
 10
8.22405
 20
2.55182
 30
0.0
  0
VERTEX
  8
0
  5
76A
 10
8.1851
 20
2.51272
 30
0.0
  0
VERTEX
  8
0
  5
76B
 10
8.14787
 20
2.47217
 30
0.0
  0
VERTEX
  8
0
  5
76C
 10
8.11233
 20
2.43097
 30
0.0
  0
VERTEX
  8
0
  5
76D
 10
8.07837
 20
2.38984
 30
0.0
  0
VERTEX
  8
0
  5
76E
 10
8.04598
 20
2.3496
 30
0.0
  0
VERTEX
  8
0
  5
76F
 10
8.01507
 20
2.31101
 30
0.0
  0
VERTEX
  8
0
  5
770
 10
7.98559
 20
2.27485
 30
0.0
  0
VERTEX
  8
0
  5
771
 10
7.95745
 20
2.24186
 30
0.0
  0
VERTEX
  8
0
  5
772
 10
7.93062
 20
2.21285
 30
0.0
  0
VERTEX
  8
0
  5
773
 10
7.90503
 20
2.18857
 30
0.0
  0
VERTEX
  8
0
  5
774
 10
7.88062
 20
2.16983
 30
0.0
  0
VERTEX
  8
0
  5
775
 10
7.85731
 20
2.15734
 30
0.0
  0
VERTEX
  8
0
  5
776
 10
7.83508
 20
2.15194
 30
0.0
  0
VERTEX
  8
0
  5
777
 10
7.81383
 20
2.15436
 30
0.0
  0
VERTEX
  8
0
  5
778
 10
7.79353
 20
2.1654
 30
0.0
  0
VERTEX
  8
0
  5
779
 10
7.76345
 20
2.21095
 30
0.0
  0
VERTEX
  8
0
  5
77A
 10
7.74383
 20
2.26964
 30
0.0
  0
VERTEX
  8
0
  5
77B
 10
7.73239
 20
2.33968
 30
0.0
  0
VERTEX
  8
0
  5
77C
 10
7.7269
 20
2.41933
 30
0.0
  0
VERTEX
  8
0
  5
77D
 10
7.72507
 20
2.50677
 30
0.0
  0
VERTEX
  8
0
  5
77E
 10
7.72467
 20
2.60027
 30
0.0
  0
VERTEX
  8
0
  5
77F
 10
7.72343
 20
2.69804
 30
0.0
  0
VERTEX
  8
0
  5
780
 10
7.7191
 20
2.79833
 30
0.0
  0
VERTEX
  8
0
  5
781
 10
7.70939
 20
2.89932
 30
0.0
  0
VERTEX
  8
0
  5
782
 10
7.69208
 20
2.99928
 30
0.0
  0
VERTEX
  8
0
  5
783
 10
7.66489
 20
3.09642
 30
0.0
  0
VERTEX
  8
0
  5
784
 10
7.62559
 20
3.18898
 30
0.0
  0
VERTEX
  8
0
  5
785
 10
7.57187
 20
3.27517
 30
0.0
  0
VERTEX
  8
0
  5
786
 10
7.50153
 20
3.35325
 30
0.0
  0
VERTEX
  8
0
  5
787
 10
7.41227
 20
3.42142
 30
0.0
  0
VERTEX
  8
0
  5
788
 10
7.30186
 20
3.47793
 30
0.0
  0
VERTEX
  8
0
  5
789
 10
6.83058
 20
3.59774
 30
0.0
  0
VERTEX
  8
0
  5
78A
 10
6.41091
 20
3.64543
 30
0.0
  0
VERTEX
  8
0
  5
78B
 10
6.04022
 20
3.62625
 30
0.0
  0
VERTEX
  8
0
  5
78C
 10
5.71593
 20
3.54553
 30
0.0
  0
VERTEX
  8
0
  5
78D
 10
5.43542
 20
3.4085
 30
0.0
  0
VERTEX
  8
0
  5
78E
 10
5.19611
 20
3.2205
 30
0.0
  0
VERTEX
  8
0
  5
78F
 10
4.99538
 20
2.98678
 30
0.0
  0
VERTEX
  8
0
  5
790
 10
4.83066
 20
2.71266
 30
0.0
  0
VERTEX
  8
0
  5
791
 10
4.69931
 20
2.40338
 30
0.0
  0
VERTEX
  8
0
  5
792
 10
4.59877
 20
2.06427
 30
0.0
  0
VERTEX
  8
0
  5
793
 10
4.52642
 20
1.7006
 30
0.0
  0
VERTEX
  8
0
  5
794
 10
4.47968
 20
1.31767
 30
0.0
  0
VERTEX
  8
0
  5
795
 10
4.45592
 20
0.92074
 30
0.0
  0
VERTEX
  8
0
  5
796
 10
4.45257
 20
0.51512
 30
0.0
  0
VERTEX
  8
0
  5
797
 10
4.46701
 20
0.10609
 30
0.0
  0
VERTEX
  8
0
  5
798
 10
4.49667
 20
-0.30106
 30
0.0
  0
VERTEX
  8
0
  5
799
 10
4.5198
 20
-0.62404
 30
0.0
  0
VERTEX
  8
0
  5
79A
 10
4.52968
 20
-0.94378
 30
0.0
  0
VERTEX
  8
0
  5
79B
 10
4.52452
 20
-1.2592
 30
0.0
  0
VERTEX
  8
0
  5
79C
 10
4.50253
 20
-1.56925
 30
0.0
  0
VERTEX
  8
0
  5
79D
 10
4.46188
 20
-1.87285
 30
0.0
  0
VERTEX
  8
0
  5
79E
 10
4.40081
 20
-2.16897
 30
0.0
  0
VERTEX
  8
0
  5
79F
 10
4.3175
 20
-2.45651
 30
0.0
  0
VERTEX
  8
0
  5
7A0
 10
4.21018
 20
-2.73446
 30
0.0
  0
VERTEX
  8
0
  5
7A1
 10
4.07701
 20
-3.0017
 30
0.0
  0
VERTEX
  8
0
  5
7A2
 10
3.91623
 20
-3.25721
 30
0.0
  0
VERTEX
  8
0
  5
7A3
 10
3.72602
 20
-3.49992
 30
0.0
  0
VERTEX
  8
0
  5
7A4
 10
3.50461
 20
-3.72878
 30
0.0
  0
VERTEX
  8
0
  5
7A5
 10
3.25017
 20
-3.9427
 30
0.0
  0
VERTEX
  8
0
  5
7A6
 10
2.96094
 20
-4.14064
 30
0.0
  0
VERTEX
  8
0
  5
7A7
 10
2.63509
 20
-4.32153
 30
0.0
  0
VERTEX
  8
0
  5
7A8
 10
2.27086
 20
-4.48433
 30
0.0
  0
VERTEX
  8
0
  5
7A9
 10
2.26251
 20
-4.48508
 30
0.0
  0
VERTEX
  8
0
  5
7AA
 10
2.23893
 20
-4.48723
 30
0.0
  0
VERTEX
  8
0
  5
7AB
 10
2.20229
 20
-4.49056
 30
0.0
  0
VERTEX
  8
0
  5
7AC
 10
2.15479
 20
-4.49491
 30
0.0
  0
VERTEX
  8
0
  5
7AD
 10
2.09857
 20
-4.50003
 30
0.0
  0
VERTEX
  8
0
  5
7AE
 10
2.03583
 20
-4.50576
 30
0.0
  0
VERTEX
  8
0
  5
7AF
 10
1.96874
 20
-4.51188
 30
0.0
  0
VERTEX
  8
0
  5
7B0
 10
1.89948
 20
-4.51821
 30
0.0
  0
VERTEX
  8
0
  5
7B1
 10
1.83019
 20
-4.52451
 30
0.0
  0
VERTEX
  8
0
  5
7B2
 10
1.7631
 20
-4.53064
 30
0.0
  0
VERTEX
  8
0
  5
7B3
 10
1.70035
 20
-4.53636
 30
0.0
  0
VERTEX
  8
0
  5
7B4
 10
1.64415
 20
-4.5415
 30
0.0
  0
VERTEX
  8
0
  5
7B5
 10
1.59663
 20
-4.54582
 30
0.0
  0
VERTEX
  8
0
  5
7B6
 10
1.56001
 20
-4.54917
 30
0.0
  0
VERTEX
  8
0
  5
7B7
 10
1.53643
 20
-4.55132
 30
0.0
  0
VERTEX
  8
0
  5
7B8
 10
1.5281
 20
-4.55209
 30
0.0
  0
VERTEX
  8
0
  5
7B9
 10
1.50401
 20
-4.55209
 30
0.0
  0
VERTEX
  8
0
  5
7BA
 10
1.43594
 20
-4.55209
 30
0.0
  0
VERTEX
  8
0
  5
7BB
 10
1.33017
 20
-4.55209
 30
0.0
  0
VERTEX
  8
0
  5
7BC
 10
1.19301
 20
-4.55209
 30
0.0
  0
VERTEX
  8
0
  5
7BD
 10
1.03069
 20
-4.55209
 30
0.0
  0
VERTEX
  8
0
  5
7BE
 10
0.84954
 20
-4.55209
 30
0.0
  0
VERTEX
  8
0
  5
7BF
 10
0.65582
 20
-4.55209
 30
0.0
  0
VERTEX
  8
0
  5
7C0
 10
0.45583
 20
-4.55209
 30
0.0
  0
VERTEX
  8
0
  5
7C1
 10
0.25582
 20
-4.55209
 30
0.0
  0
VERTEX
  8
0
  5
7C2
 10
0.06211
 20
-4.55209
 30
0.0
  0
VERTEX
  8
0
  5
7C3
 10
-0.11903
 20
-4.55209
 30
0.0
  0
VERTEX
  8
0
  5
7C4
 10
-0.28135
 20
-4.55209
 30
0.0
  0
VERTEX
  8
0
  5
7C5
 10
-0.41851
 20
-4.55209
 30
0.0
  0
VERTEX
  8
0
  5
7C6
 10
-0.52428
 20
-4.55209
 30
0.0
  0
VERTEX
  8
0
  5
7C7
 10
-0.59235
 20
-4.55209
 30
0.0
  0
VERTEX
  8
0
  5
7C8
 10
-0.61644
 20
-4.55209
 30
0.0
  0
VERTEX
  8
0
  5
7C9
 10
-0.62477
 20
-4.55132
 30
0.0
  0
VERTEX
  8
0
  5
7CA
 10
-0.64835
 20
-4.54917
 30
0.0
  0
VERTEX
  8
0
  5
7CB
 10
-0.68497
 20
-4.54582
 30
0.0
  0
VERTEX
  8
0
  5
7CC
 10
-0.73249
 20
-4.5415
 30
0.0
  0
VERTEX
  8
0
  5
7CD
 10
-0.78869
 20
-4.53636
 30
0.0
  0
VERTEX
  8
0
  5
7CE
 10
-0.85144
 20
-4.53064
 30
0.0
  0
VERTEX
  8
0
  5
7CF
 10
-0.91853
 20
-4.52451
 30
0.0
  0
VERTEX
  8
0
  5
7D0
 10
-0.98782
 20
-4.51821
 30
0.0
  0
VERTEX
  8
0
  5
7D1
 10
-1.05708
 20
-4.51188
 30
0.0
  0
VERTEX
  8
0
  5
7D2
 10
-1.12417
 20
-4.50576
 30
0.0
  0
VERTEX
  8
0
  5
7D3
 10
-1.18691
 20
-4.50003
 30
0.0
  0
VERTEX
  8
0
  5
7D4
 10
-1.24313
 20
-4.49491
 30
0.0
  0
VERTEX
  8
0
  5
7D5
 10
-1.29063
 20
-4.49056
 30
0.0
  0
VERTEX
  8
0
  5
7D6
 10
-1.32727
 20
-4.48723
 30
0.0
  0
VERTEX
  8
0
  5
7D7
 10
-1.35085
 20
-4.48508
 30
0.0
  0
VERTEX
  8
0
  5
7D8
 10
-1.3592
 20
-4.48433
 30
0.0
  0
VERTEX
  8
0
  5
7D9
 10
-1.72343
 20
-4.32153
 30
0.0
  0
VERTEX
  8
0
  5
7DA
 10
-2.04928
 20
-4.14064
 30
0.0
  0
VERTEX
  8
0
  5
7DB
 10
-2.33851
 20
-3.9427
 30
0.0
  0
VERTEX
  8
0
  5
7DC
 10
-2.59295
 20
-3.72878
 30
0.0
  0
VERTEX
  8
0
  5
7DD
 10
-2.81436
 20
-3.49992
 30
0.0
  0
VERTEX
  8
0
  5
7DE
 10
-3.00457
 20
-3.25721
 30
0.0
  0
VERTEX
  8
0
  5
7DF
 10
-3.16535
 20
-3.0017
 30
0.0
  0
VERTEX
  8
0
  5
7E0
 10
-3.29852
 20
-2.73446
 30
0.0
  0
VERTEX
  8
0
  5
7E1
 10
-3.40584
 20
-2.45651
 30
0.0
  0
VERTEX
  8
0
  5
7E2
 10
-3.48915
 20
-2.16897
 30
0.0
  0
VERTEX
  8
0
  5
7E3
 10
-3.55022
 20
-1.87285
 30
0.0
  0
VERTEX
  8
0
  5
7E4
 10
-3.59086
 20
-1.56925
 30
0.0
  0
VERTEX
  8
0
  5
7E5
 10
-3.61285
 20
-1.2592
 30
0.0
  0
VERTEX
  8
0
  5
7E6
 10
-3.61801
 20
-0.94378
 30
0.0
  0
VERTEX
  8
0
  5
7E7
 10
-3.60813
 20
-0.62404
 30
0.0
  0
VERTEX
  8
0
  5
7E8
 10
-3.585
 20
-0.30106
 30
0.0
  0
VERTEX
  8
0
  5
7E9
 10
-3.55534
 20
0.10609
 30
0.0
  0
VERTEX
  8
0
  5
7EA
 10
-3.5409
 20
0.51512
 30
0.0
  0
VERTEX
  8
0
  5
7EB
 10
-3.54425
 20
0.92074
 30
0.0
  0
VERTEX
  8
0
  5
7EC
 10
-3.56801
 20
1.31767
 30
0.0
  0
VERTEX
  8
0
  5
7ED
 10
-3.61475
 20
1.7006
 30
0.0
  0
VERTEX
  8
0
  5
7EE
 10
-3.6871
 20
2.06427
 30
0.0
  0
VERTEX
  8
0
  5
7EF
 10
-3.78764
 20
2.40338
 30
0.0
  0
VERTEX
  8
0
  5
7F0
 10
-3.91899
 20
2.71266
 30
0.0
  0
VERTEX
  8
0
  5
7F1
 10
-4.08371
 20
2.98678
 30
0.0
  0
VERTEX
  8
0
  5
7F2
 10
-4.28444
 20
3.2205
 30
0.0
  0
VERTEX
  8
0
  5
7F3
 10
-4.52375
 20
3.4085
 30
0.0
  0
VERTEX
  8
0
  5
7F4
 10
-4.80426
 20
3.54553
 30
0.0
  0
VERTEX
  8
0
  5
7F5
 10
-5.12855
 20
3.62625
 30
0.0
  0
VERTEX
  8
0
  5
7F6
 10
-5.49925
 20
3.64543
 30
0.0
  0
VERTEX
  8
0
  5
7F7
 10
-5.91892
 20
3.59774
 30
0.0
  0
VERTEX
  8
0
  5
7F8
 10
-6.3902
 20
3.47793
 30
0.0
  0
VERTEX
  8
0
  5
7F9
 10
-6.50061
 20
3.42142
 30
0.0
  0
VERTEX
  8
0
  5
7FA
 10
-6.58987
 20
3.35325
 30
0.0
  0
VERTEX
  8
0
  5
7FB
 10
-6.66021
 20
3.27517
 30
0.0
  0
VERTEX
  8
0
  5
7FC
 10
-6.71393
 20
3.18898
 30
0.0
  0
VERTEX
  8
0
  5
7FD
 10
-6.75323
 20
3.09642
 30
0.0
  0
VERTEX
  8
0
  5
7FE
 10
-6.78042
 20
2.99928
 30
0.0
  0
VERTEX
  8
0
  5
7FF
 10
-6.79773
 20
2.89932
 30
0.0
  0
VERTEX
  8
0
  5
800
 10
-6.80744
 20
2.79833
 30
0.0
  0
VERTEX
  8
0
  5
801
 10
-6.81176
 20
2.69804
 30
0.0
  0
VERTEX
  8
0
  5
802
 10
-6.81301
 20
2.60027
 30
0.0
  0
VERTEX
  8
0
  5
803
 10
-6.81341
 20
2.50677
 30
0.0
  0
VERTEX
  8
0
  5
804
 10
-6.81524
 20
2.41933
 30
0.0
  0
VERTEX
  8
0
  5
805
 10
-6.82073
 20
2.33968
 30
0.0
  0
VERTEX
  8
0
  5
806
 10
-6.83217
 20
2.26964
 30
0.0
  0
VERTEX
  8
0
  5
807
 10
-6.85179
 20
2.21095
 30
0.0
  0
VERTEX
  8
0
  5
808
 10
-6.88187
 20
2.1654
 30
0.0
  0
VERTEX
  8
0
  5
809
 10
-6.90217
 20
2.15436
 30
0.0
  0
VERTEX
  8
0
  5
80A
 10
-6.92342
 20
2.15194
 30
0.0
  0
VERTEX
  8
0
  5
80B
 10
-6.94565
 20
2.15734
 30
0.0
  0
VERTEX
  8
0
  5
80C
 10
-6.96896
 20
2.16983
 30
0.0
  0
VERTEX
  8
0
  5
80D
 10
-6.99337
 20
2.18857
 30
0.0
  0
VERTEX
  8
0
  5
80E
 10
-7.01896
 20
2.21285
 30
0.0
  0
VERTEX
  8
0
  5
80F
 10
-7.04579
 20
2.24186
 30
0.0
  0
VERTEX
  8
0
  5
810
 10
-7.07393
 20
2.27485
 30
0.0
  0
VERTEX
  8
0
  5
811
 10
-7.10341
 20
2.31101
 30
0.0
  0
VERTEX
  8
0
  5
812
 10
-7.13432
 20
2.3496
 30
0.0
  0
VERTEX
  8
0
  5
813
 10
-7.16671
 20
2.38984
 30
0.0
  0
VERTEX
  8
0
  5
814
 10
-7.20067
 20
2.43097
 30
0.0
  0
VERTEX
  8
0
  5
815
 10
-7.23621
 20
2.47217
 30
0.0
  0
VERTEX
  8
0
  5
816
 10
-7.27344
 20
2.51272
 30
0.0
  0
VERTEX
  8
0
  5
817
 10
-7.31239
 20
2.55182
 30
0.0
  0
VERTEX
  8
0
  5
818
 10
-7.35314
 20
2.58871
 30
0.0
  0
VERTEX
  8
0
  5
819
 10
-7.40438
 20
2.45401
 30
0.0
  0
VERTEX
  8
0
  5
81A
 10
-7.47623
 20
2.33341
 30
0.0
  0
VERTEX
  8
0
  5
81B
 10
-7.56628
 20
2.22648
 30
0.0
  0
VERTEX
  8
0
  5
81C
 10
-7.67218
 20
2.13285
 30
0.0
  0
VERTEX
  8
0
  5
81D
 10
-7.79154
 20
2.0521
 30
0.0
  0
VERTEX
  8
0
  5
81E
 10
-7.92201
 20
1.98385
 30
0.0
  0
VERTEX
  8
0
  5
81F
 10
-8.0612
 20
1.9277
 30
0.0
  0
VERTEX
  8
0
  5
820
 10
-8.20677
 20
1.88326
 30
0.0
  0
VERTEX
  8
0
  5
821
 10
-8.35631
 20
1.85011
 30
0.0
  0
VERTEX
  8
0
  5
822
 10
-8.50748
 20
1.82787
 30
0.0
  0
VERTEX
  8
0
  5
823
 10
-8.65789
 20
1.81615
 30
0.0
  0
VERTEX
  8
0
  5
824
 10
-8.80521
 20
1.81456
 30
0.0
  0
VERTEX
  8
0
  5
825
 10
-8.94701
 20
1.82266
 30
0.0
  0
VERTEX
  8
0
  5
826
 10
-9.08096
 20
1.84011
 30
0.0
  0
VERTEX
  8
0
  5
827
 10
-9.20468
 20
1.86647
 30
0.0
  0
VERTEX
  8
0
  5
828
 10
-9.31582
 20
1.90139
 30
0.0
  0
VERTEX
  8
0
  5
829
 10
-9.31591
 20
1.89607
 30
0.0
  0
VERTEX
  8
0
  5
82A
 10
-9.31617
 20
1.88104
 30
0.0
  0
VERTEX
  8
0
  5
82B
 10
-9.31658
 20
1.85769
 30
0.0
  0
VERTEX
  8
0
  5
82C
 10
-9.31713
 20
1.82742
 30
0.0
  0
VERTEX
  8
0
  5
82D
 10
-9.31777
 20
1.79159
 30
0.0
  0
VERTEX
  8
0
  5
82E
 10
-9.31849
 20
1.75162
 30
0.0
  0
VERTEX
  8
0
  5
82F
 10
-9.31925
 20
1.70886
 30
0.0
  0
VERTEX
  8
0
  5
830
 10
-9.32005
 20
1.66473
 30
0.0
  0
VERTEX
  8
0
  5
831
 10
-9.32083
 20
1.62057
 30
0.0
  0
VERTEX
  8
0
  5
832
 10
-9.3216
 20
1.57781
 30
0.0
  0
VERTEX
  8
0
  5
833
 10
-9.32231
 20
1.53783
 30
0.0
  0
VERTEX
  8
0
  5
834
 10
-9.32296
 20
1.50202
 30
0.0
  0
VERTEX
  8
0
  5
835
 10
-9.3235
 20
1.47173
 30
0.0
  0
VERTEX
  8
0
  5
836
 10
-9.32392
 20
1.4484
 30
0.0
  0
VERTEX
  8
0
  5
837
 10
-9.32418
 20
1.43337
 30
0.0
  0
VERTEX
  8
0
  5
838
 10
-9.32429
 20
1.42807
 30
0.0
  0
VERTEX
  8
0
  5
839
 10
-9.34779
 20
1.41643
 30
0.0
  0
VERTEX
  8
0
  5
83A
 10
-9.37184
 20
1.42038
 30
0.0
  0
VERTEX
  8
0
  5
83B
 10
-9.39628
 20
1.43751
 30
0.0
  0
VERTEX
  8
0
  5
83C
 10
-9.42101
 20
1.46547
 30
0.0
  0
VERTEX
  8
0
  5
83D
 10
-9.44586
 20
1.50184
 30
0.0
  0
VERTEX
  8
0
  5
83E
 10
-9.47072
 20
1.54427
 30
0.0
  0
VERTEX
  8
0
  5
83F
 10
-9.49545
 20
1.59036
 30
0.0
  0
VERTEX
  8
0
  5
840
 10
-9.51992
 20
1.63775
 30
0.0
  0
VERTEX
  8
0
  5
841
 10
-9.54396
 20
1.68402
 30
0.0
  0
VERTEX
  8
0
  5
842
 10
-9.56747
 20
1.72682
 30
0.0
  0
VERTEX
  8
0
  5
843
 10
-9.59029
 20
1.76376
 30
0.0
  0
VERTEX
  8
0
  5
844
 10
-9.61232
 20
1.79246
 30
0.0
  0
VERTEX
  8
0
  5
845
 10
-9.63339
 20
1.81052
 30
0.0
  0
VERTEX
  8
0
  5
846
 10
-9.65338
 20
1.81559
 30
0.0
  0
VERTEX
  8
0
  5
847
 10
-9.67215
 20
1.80527
 30
0.0
  0
VERTEX
  8
0
  5
848
 10
-9.68959
 20
1.77719
 30
0.0
  0
VERTEX
  8
0
  5
849
 10
-9.81265
 20
1.58134
 30
0.0
  0
VERTEX
  8
0
  5
84A
 10
-9.97922
 20
1.43763
 30
0.0
  0
VERTEX
  8
0
  5
84B
 10
-10.18123
 20
1.34256
 30
0.0
  0
VERTEX
  8
0
  5
84C
 10
-10.41062
 20
1.29263
 30
0.0
  0
VERTEX
  8
0
  5
84D
 10
-10.65932
 20
1.28431
 30
0.0
  0
VERTEX
  8
0
  5
84E
 10
-10.9193
 20
1.31415
 30
0.0
  0
VERTEX
  8
0
  5
84F
 10
-11.18249
 20
1.37861
 30
0.0
  0
VERTEX
  8
0
  5
850
 10
-11.44083
 20
1.47421
 30
0.0
  0
VERTEX
  8
0
  5
851
 10
-11.68624
 20
1.59742
 30
0.0
  0
VERTEX
  8
0
  5
852
 10
-11.91071
 20
1.74478
 30
0.0
  0
VERTEX
  8
0
  5
853
 10
-12.10614
 20
1.91276
 30
0.0
  0
VERTEX
  8
0
  5
854
 10
-12.26452
 20
2.09788
 30
0.0
  0
VERTEX
  8
0
  5
855
 10
-12.37775
 20
2.29661
 30
0.0
  0
VERTEX
  8
0
  5
856
 10
-12.43779
 20
2.50548
 30
0.0
  0
VERTEX
  8
0
  5
857
 10
-12.43657
 20
2.72098
 30
0.0
  0
VERTEX
  8
0
  5
858
 10
-12.36607
 20
2.93961
 30
0.0
  0
VERTEX
  8
0
  5
859
 10
-12.26123
 20
3.12351
 30
0.0
  0
VERTEX
  8
0
  5
85A
 10
-12.14844
 20
3.26982
 30
0.0
  0
VERTEX
  8
0
  5
85B
 10
-12.02958
 20
3.38091
 30
0.0
  0
VERTEX
  8
0
  5
85C
 10
-11.90655
 20
3.45917
 30
0.0
  0
VERTEX
  8
0
  5
85D
 10
-11.78119
 20
3.50695
 30
0.0
  0
VERTEX
  8
0
  5
85E
 10
-11.65544
 20
3.52666
 30
0.0
  0
VERTEX
  8
0
  5
85F
 10
-11.53116
 20
3.52065
 30
0.0
  0
VERTEX
  8
0
  5
860
 10
-11.41024
 20
3.49133
 30
0.0
  0
VERTEX
  8
0
  5
861
 10
-11.29455
 20
3.44104
 30
0.0
  0
VERTEX
  8
0
  5
862
 10
-11.18599
 20
3.3722
 30
0.0
  0
VERTEX
  8
0
  5
863
 10
-11.08645
 20
3.28716
 30
0.0
  0
VERTEX
  8
0
  5
864
 10
-10.99783
 20
3.18834
 30
0.0
  0
VERTEX
  8
0
  5
865
 10
-10.92198
 20
3.07806
 30
0.0
  0
VERTEX
  8
0
  5
866
 10
-10.86082
 20
2.95875
 30
0.0
  0
VERTEX
  8
0
  5
867
 10
-10.81622
 20
2.83276
 30
0.0
  0
VERTEX
  8
0
  5
868
 10
-10.79007
 20
2.7025
 30
0.0
  0
VERTEX
  8
0
  5
869
 10
-10.57656
 20
2.78315
 30
0.0
  0
VERTEX
  8
0
  5
86A
 10
-10.39985
 20
2.86497
 30
0.0
  0
VERTEX
  8
0
  5
86B
 10
-10.25592
 20
2.94778
 30
0.0
  0
VERTEX
  8
0
  5
86C
 10
-10.14082
 20
3.0315
 30
0.0
  0
VERTEX
  8
0
  5
86D
 10
-10.05055
 20
3.11594
 30
0.0
  0
VERTEX
  8
0
  5
86E
 10
-9.98118
 20
3.20102
 30
0.0
  0
VERTEX
  8
0
  5
86F
 10
-9.92869
 20
3.28659
 30
0.0
  0
VERTEX
  8
0
  5
870
 10
-9.88913
 20
3.37253
 30
0.0
  0
VERTEX
  8
0
  5
871
 10
-9.8585
 20
3.45868
 30
0.0
  0
VERTEX
  8
0
  5
872
 10
-9.83285
 20
3.54496
 30
0.0
  0
VERTEX
  8
0
  5
873
 10
-9.80818
 20
3.63121
 30
0.0
  0
VERTEX
  8
0
  5
874
 10
-9.78054
 20
3.71732
 30
0.0
  0
VERTEX
  8
0
  5
875
 10
-9.74593
 20
3.80313
 30
0.0
  0
VERTEX
  8
0
  5
876
 10
-9.70041
 20
3.88854
 30
0.0
  0
VERTEX
  8
0
  5
877
 10
-9.63997
 20
3.97341
 30
0.0
  0
VERTEX
  8
0
  5
878
 10
-9.56065
 20
4.05762
 30
0.0
  0
VERTEX
  8
0
  5
879
 10
-9.53125
 20
4.08045
 30
0.0
  0
VERTEX
  8
0
  5
87A
 10
-9.50292
 20
4.09363
 30
0.0
  0
VERTEX
  8
0
  5
87B
 10
-9.47516
 20
4.09813
 30
0.0
  0
VERTEX
  8
0
  5
87C
 10
-9.44753
 20
4.09491
 30
0.0
  0
VERTEX
  8
0
  5
87D
 10
-9.41949
 20
4.0849
 30
0.0
  0
VERTEX
  8
0
  5
87E
 10
-9.39062
 20
4.06909
 30
0.0
  0
VERTEX
  8
0
  5
87F
 10
-9.3604
 20
4.04843
 30
0.0
  0
VERTEX
  8
0
  5
880
 10
-9.32839
 20
4.02387
 30
0.0
  0
VERTEX
  8
0
  5
881
 10
-9.29405
 20
3.99634
 30
0.0
  0
VERTEX
  8
0
  5
882
 10
-9.25697
 20
3.96686
 30
0.0
  0
VERTEX
  8
0
  5
883
 10
-9.21663
 20
3.93633
 30
0.0
  0
VERTEX
  8
0
  5
884
 10
-9.17257
 20
3.90575
 30
0.0
  0
VERTEX
  8
0
  5
885
 10
-9.12428
 20
3.87604
 30
0.0
  0
VERTEX
  8
0
  5
886
 10
-9.07134
 20
3.8482
 30
0.0
  0
VERTEX
  8
0
  5
887
 10
-9.01322
 20
3.82314
 30
0.0
  0
VERTEX
  8
0
  5
888
 10
-8.94948
 20
3.80187
 30
0.0
  0
VERTEX
  8
0
  5
889
 10
-8.93417
 20
3.94836
 30
0.0
  0
VERTEX
  8
0
  5
88A
 10
-8.89937
 20
4.07161
 30
0.0
  0
VERTEX
  8
0
  5
88B
 10
-8.84738
 20
4.17304
 30
0.0
  0
VERTEX
  8
0
  5
88C
 10
-8.78052
 20
4.25409
 30
0.0
  0
VERTEX
  8
0
  5
88D
 10
-8.70106
 20
4.31616
 30
0.0
  0
VERTEX
  8
0
  5
88E
 10
-8.61134
 20
4.36072
 30
0.0
  0
VERTEX
  8
0
  5
88F
 10
-8.51366
 20
4.38917
 30
0.0
  0
VERTEX
  8
0
  5
890
 10
-8.41033
 20
4.40296
 30
0.0
  0
VERTEX
  8
0
  5
891
 10
-8.30363
 20
4.40348
 30
0.0
  0
VERTEX
  8
0
  5
892
 10
-8.19591
 20
4.3922
 30
0.0
  0
VERTEX
  8
0
  5
893
 10
-8.08945
 20
4.37051
 30
0.0
  0
VERTEX
  8
0
  5
894
 10
-7.98658
 20
4.33989
 30
0.0
  0
VERTEX
  8
0
  5
895
 10
-7.88956
 20
4.30172
 30
0.0
  0
VERTEX
  8
0
  5
896
 10
-7.80075
 20
4.25745
 30
0.0
  0
VERTEX
  8
0
  5
897
 10
-7.72243
 20
4.2085
 30
0.0
  0
VERTEX
  8
0
  5
898
 10
-7.65693
 20
4.15632
 30
0.0
  0
VERTEX
  8
0
  5
899
 10
-7.61757
 20
4.34355
 30
0.0
  0
VERTEX
  8
0
  5
89A
 10
-7.57596
 20
4.48348
 30
0.0
  0
VERTEX
  8
0
  5
89B
 10
-7.53266
 20
4.58103
 30
0.0
  0
VERTEX
  8
0
  5
89C
 10
-7.48829
 20
4.64115
 30
0.0
  0
VERTEX
  8
0
  5
89D
 10
-7.4434
 20
4.66874
 30
0.0
  0
VERTEX
  8
0
  5
89E
 10
-7.39863
 20
4.66877
 30
0.0
  0
VERTEX
  8
0
  5
89F
 10
-7.35454
 20
4.64614
 30
0.0
  0
VERTEX
  8
0
  5
8A0
 10
-7.31173
 20
4.60581
 30
0.0
  0
VERTEX
  8
0
  5
8A1
 10
-7.27076
 20
4.55269
 30
0.0
  0
VERTEX
  8
0
  5
8A2
 10
-7.23227
 20
4.49172
 30
0.0
  0
VERTEX
  8
0
  5
8A3
 10
-7.19681
 20
4.42784
 30
0.0
  0
VERTEX
  8
0
  5
8A4
 10
-7.16501
 20
4.36599
 30
0.0
  0
VERTEX
  8
0
  5
8A5
 10
-7.13741
 20
4.31107
 30
0.0
  0
VERTEX
  8
0
  5
8A6
 10
-7.11465
 20
4.26806
 30
0.0
  0
VERTEX
  8
0
  5
8A7
 10
-7.09729
 20
4.24187
 30
0.0
  0
VERTEX
  8
0
  5
8A8
 10
-7.08593
 20
4.23744
 30
0.0
  0
VERTEX
  8
0
  5
8A9
 10
-6.99253
 20
4.32007
 30
0.0
  0
VERTEX
  8
0
  5
8AA
 10
-6.87831
 20
4.40276
 30
0.0
  0
VERTEX
  8
0
  5
8AB
 10
-6.74448
 20
4.48281
 30
0.0
  0
VERTEX
  8
0
  5
8AC
 10
-6.59226
 20
4.55757
 30
0.0
  0
VERTEX
  8
0
  5
8AD
 10
-6.42283
 20
4.62435
 30
0.0
  0
VERTEX
  8
0
  5
8AE
 10
-6.23744
 20
4.68051
 30
0.0
  0
VERTEX
  8
0
  5
8AF
 10
-6.03726
 20
4.72336
 30
0.0
  0
VERTEX
  8
0
  5
8B0
 10
-5.82353
 20
4.75024
 30
0.0
  0
VERTEX
  8
0
  5
8B1
 10
-5.59743
 20
4.75847
 30
0.0
  0
VERTEX
  8
0
  5
8B2
 10
-5.36019
 20
4.74539
 30
0.0
  0
VERTEX
  8
0
  5
8B3
 10
-5.11302
 20
4.70832
 30
0.0
  0
VERTEX
  8
0
  5
8B4
 10
-4.85714
 20
4.64463
 30
0.0
  0
VERTEX
  8
0
  5
8B5
 10
-4.59373
 20
4.5516
 30
0.0
  0
VERTEX
  8
0
  5
8B6
 10
-4.32403
 20
4.42659
 30
0.0
  0
VERTEX
  8
0
  5
8B7
 10
-4.04922
 20
4.26693
 30
0.0
  0
VERTEX
  8
0
  5
8B8
 10
-3.77055
 20
4.06996
 30
0.0
  0
VERTEX
  8
0
  5
8B9
 10
-3.39923
 20
3.71954
 30
0.0
  0
VERTEX
  8
0
  5
8BA
 10
-3.10825
 20
3.3158
 30
0.0
  0
VERTEX
  8
0
  5
8BB
 10
-2.88753
 20
2.86835
 30
0.0
  0
VERTEX
  8
0
  5
8BC
 10
-2.72705
 20
2.38685
 30
0.0
  0
VERTEX
  8
0
  5
8BD
 10
-2.61673
 20
1.88089
 30
0.0
  0
VERTEX
  8
0
  5
8BE
 10
-2.54655
 20
1.36014
 30
0.0
  0
VERTEX
  8
0
  5
8BF
 10
-2.50643
 20
0.8342
 30
0.0
  0
VERTEX
  8
0
  5
8C0
 10
-2.48634
 20
0.31273
 30
0.0
  0
VERTEX
  8
0
  5
8C1
 10
-2.4762
 20
-0.19466
 30
0.0
  0
VERTEX
  8
0
  5
8C2
 10
-2.46599
 20
-0.67836
 30
0.0
  0
VERTEX
  8
0
  5
8C3
 10
-2.44563
 20
-1.12871
 30
0.0
  0
VERTEX
  8
0
  5
8C4
 10
-2.40511
 20
-1.5361
 30
0.0
  0
VERTEX
  8
0
  5
8C5
 10
-2.33434
 20
-1.89088
 30
0.0
  0
VERTEX
  8
0
  5
8C6
 10
-2.22329
 20
-2.18344
 30
0.0
  0
VERTEX
  8
0
  5
8C7
 10
-2.06189
 20
-2.40414
 30
0.0
  0
VERTEX
  8
0
  5
8C8
 10
-1.84013
 20
-2.54336
 30
0.0
  0
VERTEX
  8
0
  5
8C9
 10
-1.8283
 20
-2.54565
 30
0.0
  0
VERTEX
  8
0
  5
8CA
 10
-1.81131
 20
-2.54588
 30
0.0
  0
VERTEX
  8
0
  5
8CB
 10
-1.78989
 20
-2.54404
 30
0.0
  0
VERTEX
  8
0
  5
8CC
 10
-1.76484
 20
-2.54015
 30
0.0
  0
VERTEX
  8
0
  5
8CD
 10
-1.7369
 20
-2.53418
 30
0.0
  0
VERTEX
  8
0
  5
8CE
 10
-1.70688
 20
-2.52616
 30
0.0
  0
VERTEX
  8
0
  5
8CF
 10
-1.67551
 20
-2.51607
 30
0.0
  0
VERTEX
  8
0
  5
8D0
 10
-1.6436
 20
-2.50394
 30
0.0
  0
VERTEX
  8
0
  5
8D1
 10
-1.61186
 20
-2.48973
 30
0.0
  0
VERTEX
  8
0
  5
8D2
 10
-1.58112
 20
-2.47349
 30
0.0
  0
VERTEX
  8
0
  5
8D3
 10
-1.55212
 20
-2.45519
 30
0.0
  0
VERTEX
  8
0
  5
8D4
 10
-1.52564
 20
-2.43486
 30
0.0
  0
VERTEX
  8
0
  5
8D5
 10
-1.50243
 20
-2.41247
 30
0.0
  0
VERTEX
  8
0
  5
8D6
 10
-1.48329
 20
-2.38805
 30
0.0
  0
VERTEX
  8
0
  5
8D7
 10
-1.46898
 20
-2.36159
 30
0.0
  0
VERTEX
  8
0
  5
8D8
 10
-1.46026
 20
-2.3331
 30
0.0
  0
VERTEX
  8
0
  5
8D9
 10
-1.44161
 20
-2.21844
 30
0.0
  0
VERTEX
  8
0
  5
8DA
 10
-1.42422
 20
-2.08754
 30
0.0
  0
VERTEX
  8
0
  5
8DB
 10
-1.40505
 20
-1.94368
 30
0.0
  0
VERTEX
  8
0
  5
8DC
 10
-1.38112
 20
-1.79017
 30
0.0
  0
VERTEX
  8
0
  5
8DD
 10
-1.34939
 20
-1.63026
 30
0.0
  0
VERTEX
  8
0
  5
8DE
 10
-1.30688
 20
-1.46727
 30
0.0
  0
VERTEX
  8
0
  5
8DF
 10
-1.25055
 20
-1.30447
 30
0.0
  0
VERTEX
  8
0
  5
8E0
 10
-1.17742
 20
-1.14517
 30
0.0
  0
VERTEX
  8
0
  5
8E1
 10
-1.08444
 20
-0.99262
 30
0.0
  0
VERTEX
  8
0
  5
8E2
 10
-0.96863
 20
-0.85015
 30
0.0
  0
VERTEX
  8
0
  5
8E3
 10
-0.82696
 20
-0.72102
 30
0.0
  0
VERTEX
  8
0
  5
8E4
 10
-0.65645
 20
-0.60854
 30
0.0
  0
VERTEX
  8
0
  5
8E5
 10
-0.45405
 20
-0.51597
 30
0.0
  0
VERTEX
  8
0
  5
8E6
 10
-0.2168
 20
-0.44663
 30
0.0
  0
VERTEX
  8
0
  5
8E7
 10
0.05835
 20
-0.40378
 30
0.0
  0
SEQEND
  8
0
  5
8E8
  0
POLYLINE
  8
0
  5
8E9
 66
     1
 10
0.0
 20
0.0
 30
0.0
  0
VERTEX
  8
0
  5
8EA
 10
9.09109
 20
3.65999
 30
0.0
  0
VERTEX
  8
0
  5
8EB
 10
9.09109
 20
3.65999
 30
0.0
  0
VERTEX
  8
0
  5
8EC
 10
9.06034
 20
3.65843
 30
0.0
  0
VERTEX
  8
0
  5
8ED
 10
9.03048
 20
3.65387
 30
0.0
  0
VERTEX
  8
0
  5
8EE
 10
9.00165
 20
3.64646
 30
0.0
  0
VERTEX
  8
0
  5
8EF
 10
8.97403
 20
3.63635
 30
0.0
  0
VERTEX
  8
0
  5
8F0
 10
8.94774
 20
3.62368
 30
0.0
  0
VERTEX
  8
0
  5
8F1
 10
8.92295
 20
3.60862
 30
0.0
  0
VERTEX
  8
0
  5
8F2
 10
8.89979
 20
3.59131
 30
0.0
  0
VERTEX
  8
0
  5
8F3
 10
8.87845
 20
3.57191
 30
0.0
  0
VERTEX
  8
0
  5
8F4
 10
8.85903
 20
3.55054
 30
0.0
  0
VERTEX
  8
0
  5
8F5
 10
8.84172
 20
3.5274
 30
0.0
  0
VERTEX
  8
0
  5
8F6
 10
8.82666
 20
3.5026
 30
0.0
  0
VERTEX
  8
0
  5
8F7
 10
8.814
 20
3.47632
 30
0.0
  0
VERTEX
  8
0
  5
8F8
 10
8.80388
 20
3.44868
 30
0.0
  0
VERTEX
  8
0
  5
8F9
 10
8.79647
 20
3.41986
 30
0.0
  0
VERTEX
  8
0
  5
8FA
 10
8.79191
 20
3.39
 30
0.0
  0
VERTEX
  8
0
  5
8FB
 10
8.79037
 20
3.35927
 30
0.0
  0
VERTEX
  8
0
  5
8FC
 10
8.79191
 20
3.32852
 30
0.0
  0
VERTEX
  8
0
  5
8FD
 10
8.79647
 20
3.29866
 30
0.0
  0
VERTEX
  8
0
  5
8FE
 10
8.80388
 20
3.26983
 30
0.0
  0
VERTEX
  8
0
  5
8FF
 10
8.814
 20
3.24221
 30
0.0
  0
VERTEX
  8
0
  5
900
 10
8.82666
 20
3.21592
 30
0.0
  0
VERTEX
  8
0
  5
901
 10
8.84172
 20
3.19113
 30
0.0
  0
VERTEX
  8
0
  5
902
 10
8.85903
 20
3.16797
 30
0.0
  0
VERTEX
  8
0
  5
903
 10
8.87845
 20
3.14663
 30
0.0
  0
VERTEX
  8
0
  5
904
 10
8.89979
 20
3.12721
 30
0.0
  0
VERTEX
  8
0
  5
905
 10
8.92295
 20
3.1099
 30
0.0
  0
VERTEX
  8
0
  5
906
 10
8.94774
 20
3.09484
 30
0.0
  0
VERTEX
  8
0
  5
907
 10
8.97403
 20
3.08218
 30
0.0
  0
VERTEX
  8
0
  5
908
 10
9.00165
 20
3.07206
 30
0.0
  0
VERTEX
  8
0
  5
909
 10
9.03048
 20
3.06465
 30
0.0
  0
VERTEX
  8
0
  5
90A
 10
9.06034
 20
3.06009
 30
0.0
  0
VERTEX
  8
0
  5
90B
 10
9.09109
 20
3.05855
 30
0.0
  0
VERTEX
  8
0
  5
90C
 10
9.12182
 20
3.06009
 30
0.0
  0
VERTEX
  8
0
  5
90D
 10
9.15168
 20
3.06465
 30
0.0
  0
VERTEX
  8
0
  5
90E
 10
9.1805
 20
3.07206
 30
0.0
  0
VERTEX
  8
0
  5
90F
 10
9.20814
 20
3.08218
 30
0.0
  0
VERTEX
  8
0
  5
910
 10
9.23442
 20
3.09484
 30
0.0
  0
VERTEX
  8
0
  5
911
 10
9.25922
 20
3.1099
 30
0.0
  0
VERTEX
  8
0
  5
912
 10
9.28236
 20
3.12721
 30
0.0
  0
VERTEX
  8
0
  5
913
 10
9.30373
 20
3.14663
 30
0.0
  0
VERTEX
  8
0
  5
914
 10
9.32313
 20
3.16797
 30
0.0
  0
VERTEX
  8
0
  5
915
 10
9.34044
 20
3.19113
 30
0.0
  0
VERTEX
  8
0
  5
916
 10
9.3555
 20
3.21592
 30
0.0
  0
VERTEX
  8
0
  5
917
 10
9.36817
 20
3.24221
 30
0.0
  0
VERTEX
  8
0
  5
918
 10
9.37828
 20
3.26983
 30
0.0
  0
VERTEX
  8
0
  5
919
 10
9.38569
 20
3.29866
 30
0.0
  0
VERTEX
  8
0
  5
91A
 10
9.39025
 20
3.32852
 30
0.0
  0
VERTEX
  8
0
  5
91B
 10
9.39181
 20
3.35927
 30
0.0
  0
VERTEX
  8
0
  5
91C
 10
9.39025
 20
3.39
 30
0.0
  0
VERTEX
  8
0
  5
91D
 10
9.38569
 20
3.41986
 30
0.0
  0
VERTEX
  8
0
  5
91E
 10
9.37828
 20
3.44868
 30
0.0
  0
VERTEX
  8
0
  5
91F
 10
9.36817
 20
3.47632
 30
0.0
  0
VERTEX
  8
0
  5
920
 10
9.3555
 20
3.5026
 30
0.0
  0
VERTEX
  8
0
  5
921
 10
9.34044
 20
3.5274
 30
0.0
  0
VERTEX
  8
0
  5
922
 10
9.32313
 20
3.55054
 30
0.0
  0
VERTEX
  8
0
  5
923
 10
9.30373
 20
3.57191
 30
0.0
  0
VERTEX
  8
0
  5
924
 10
9.28236
 20
3.59131
 30
0.0
  0
VERTEX
  8
0
  5
925
 10
9.25922
 20
3.60862
 30
0.0
  0
VERTEX
  8
0
  5
926
 10
9.23442
 20
3.62368
 30
0.0
  0
VERTEX
  8
0
  5
927
 10
9.20814
 20
3.63635
 30
0.0
  0
VERTEX
  8
0
  5
928
 10
9.1805
 20
3.64646
 30
0.0
  0
VERTEX
  8
0
  5
929
 10
9.15168
 20
3.65387
 30
0.0
  0
VERTEX
  8
0
  5
92A
 10
9.12182
 20
3.65843
 30
0.0
  0
SEQEND
  8
0
  5
92B
  0
POLYLINE
  8
0
  5
92C
 66
     1
 10
0.0
 20
0.0
 30
0.0
  0
VERTEX
  8
0
  5
92D
 10
0.36647
 20
-1.40481
 30
0.0
  0
VERTEX
  8
0
  5
92E
 10
0.36647
 20
-1.40481
 30
0.0
  0
VERTEX
  8
0
  5
92F
 10
0.40809
 20
-1.40691
 30
0.0
  0
VERTEX
  8
0
  5
930
 10
0.44854
 20
-1.41312
 30
0.0
  0
VERTEX
  8
0
  5
931
 10
0.4876
 20
-1.4232
 30
0.0
  0
VERTEX
  8
0
  5
932
 10
0.52508
 20
-1.43697
 30
0.0
  0
VERTEX
  8
0
  5
933
 10
0.56074
 20
-1.45418
 30
0.0
  0
VERTEX
  8
0
  5
934
 10
0.5944
 20
-1.47467
 30
0.0
  0
VERTEX
  8
0
  5
935
 10
0.62584
 20
-1.4982
 30
0.0
  0
VERTEX
  8
0
  5
936
 10
0.65486
 20
-1.52459
 30
0.0
  0
VERTEX
  8
0
  5
937
 10
0.68122
 20
-1.55359
 30
0.0
  0
VERTEX
  8
0
  5
938
 10
0.70476
 20
-1.58503
 30
0.0
  0
VERTEX
  8
0
  5
939
 10
0.72524
 20
-1.61869
 30
0.0
  0
VERTEX
  8
0
  5
93A
 10
0.74248
 20
-1.65436
 30
0.0
  0
VERTEX
  8
0
  5
93B
 10
0.75623
 20
-1.69182
 30
0.0
  0
VERTEX
  8
0
  5
93C
 10
0.76633
 20
-1.7309
 30
0.0
  0
VERTEX
  8
0
  5
93D
 10
0.77254
 20
-1.77135
 30
0.0
  0
VERTEX
  8
0
  5
93E
 10
0.77466
 20
-1.813
 30
0.0
  0
VERTEX
  8
0
  5
93F
 10
0.77254
 20
-1.85462
 30
0.0
  0
VERTEX
  8
0
  5
940
 10
0.76633
 20
-1.89507
 30
0.0
  0
VERTEX
  8
0
  5
941
 10
0.75623
 20
-1.93413
 30
0.0
  0
VERTEX
  8
0
  5
942
 10
0.74248
 20
-1.97161
 30
0.0
  0
VERTEX
  8
0
  5
943
 10
0.72524
 20
-2.00727
 30
0.0
  0
VERTEX
  8
0
  5
944
 10
0.70476
 20
-2.04093
 30
0.0
  0
VERTEX
  8
0
  5
945
 10
0.68122
 20
-2.07236
 30
0.0
  0
VERTEX
  8
0
  5
946
 10
0.65486
 20
-2.10138
 30
0.0
  0
VERTEX
  8
0
  5
947
 10
0.62584
 20
-2.12774
 30
0.0
  0
VERTEX
  8
0
  5
948
 10
0.5944
 20
-2.15128
 30
0.0
  0
VERTEX
  8
0
  5
949
 10
0.56074
 20
-2.17176
 30
0.0
  0
VERTEX
  8
0
  5
94A
 10
0.52508
 20
-2.189
 30
0.0
  0
VERTEX
  8
0
  5
94B
 10
0.4876
 20
-2.20275
 30
0.0
  0
VERTEX
  8
0
  5
94C
 10
0.44854
 20
-2.21285
 30
0.0
  0
VERTEX
  8
0
  5
94D
 10
0.40809
 20
-2.21906
 30
0.0
  0
VERTEX
  8
0
  5
94E
 10
0.36647
 20
-2.22118
 30
0.0
  0
VERTEX
  8
0
  5
94F
 10
0.32482
 20
-2.21906
 30
0.0
  0
VERTEX
  8
0
  5
950
 10
0.28437
 20
-2.21285
 30
0.0
  0
VERTEX
  8
0
  5
951
 10
0.2453
 20
-2.20275
 30
0.0
  0
VERTEX
  8
0
  5
952
 10
0.20784
 20
-2.189
 30
0.0
  0
VERTEX
  8
0
  5
953
 10
0.17217
 20
-2.17176
 30
0.0
  0
VERTEX
  8
0
  5
954
 10
0.13852
 20
-2.15128
 30
0.0
  0
VERTEX
  8
0
  5
955
 10
0.10708
 20
-2.12774
 30
0.0
  0
VERTEX
  8
0
  5
956
 10
0.07808
 20
-2.10138
 30
0.0
  0
VERTEX
  8
0
  5
957
 10
0.05169
 20
-2.07236
 30
0.0
  0
VERTEX
  8
0
  5
958
 10
0.02816
 20
-2.04093
 30
0.0
  0
VERTEX
  8
0
  5
959
 10
0.00768
 20
-2.00727
 30
0.0
  0
VERTEX
  8
0
  5
95A
 10
-0.00954
 20
-1.97161
 30
0.0
  0
VERTEX
  8
0
  5
95B
 10
-0.02329
 20
-1.93413
 30
0.0
  0
VERTEX
  8
0
  5
95C
 10
-0.03338
 20
-1.89507
 30
0.0
  0
VERTEX
  8
0
  5
95D
 10
-0.03958
 20
-1.85462
 30
0.0
  0
VERTEX
  8
0
  5
95E
 10
-0.0417
 20
-1.813
 30
0.0
  0
VERTEX
  8
0
  5
95F
 10
-0.03958
 20
-1.77135
 30
0.0
  0
VERTEX
  8
0
  5
960
 10
-0.03338
 20
-1.7309
 30
0.0
  0
VERTEX
  8
0
  5
961
 10
-0.02329
 20
-1.69182
 30
0.0
  0
VERTEX
  8
0
  5
962
 10
-0.00954
 20
-1.65436
 30
0.0
  0
VERTEX
  8
0
  5
963
 10
0.00768
 20
-1.61869
 30
0.0
  0
VERTEX
  8
0
  5
964
 10
0.02816
 20
-1.58503
 30
0.0
  0
VERTEX
  8
0
  5
965
 10
0.05169
 20
-1.55359
 30
0.0
  0
VERTEX
  8
0
  5
966
 10
0.07808
 20
-1.52459
 30
0.0
  0
VERTEX
  8
0
  5
967
 10
0.10708
 20
-1.4982
 30
0.0
  0
VERTEX
  8
0
  5
968
 10
0.13852
 20
-1.47467
 30
0.0
  0
VERTEX
  8
0
  5
969
 10
0.17217
 20
-1.45418
 30
0.0
  0
VERTEX
  8
0
  5
96A
 10
0.20784
 20
-1.43697
 30
0.0
  0
VERTEX
  8
0
  5
96B
 10
0.2453
 20
-1.4232
 30
0.0
  0
VERTEX
  8
0
  5
96C
 10
0.28437
 20
-1.41312
 30
0.0
  0
VERTEX
  8
0
  5
96D
 10
0.32482
 20
-1.40691
 30
0.0
  0
SEQEND
  8
0
  5
96E
  0
POLYLINE
  8
0
  5
96F
 66
     1
 10
0.0
 20
0.0
 30
0.0
  0
VERTEX
  8
0
  5
970
 10
-0.24503
 20
0.21786
 30
0.0
  0
VERTEX
  8
0
  5
971
 10
-0.24503
 20
0.21786
 30
0.0
  0
VERTEX
  8
0
  5
972
 10
-0.54666
 20
0.23036
 30
0.0
  0
VERTEX
  8
0
  5
973
 10
-0.79813
 20
0.27788
 30
0.0
  0
VERTEX
  8
0
  5
974
 10
-1.0043
 20
0.3557
 30
0.0
  0
VERTEX
  8
0
  5
975
 10
-1.17008
 20
0.45915
 30
0.0
  0
VERTEX
  8
0
  5
976
 10
-1.30031
 20
0.5835
 30
0.0
  0
VERTEX
  8
0
  5
977
 10
-1.39991
 20
0.7241
 30
0.0
  0
VERTEX
  8
0
  5
978
 10
-1.47372
 20
0.87624
 30
0.0
  0
VERTEX
  8
0
  5
979
 10
-1.52667
 20
1.03524
 30
0.0
  0
VERTEX
  8
0
  5
97A
 10
-1.56358
 20
1.19637
 30
0.0
  0
VERTEX
  8
0
  5
97B
 10
-1.58938
 20
1.355
 30
0.0
  0
VERTEX
  8
0
  5
97C
 10
-1.60893
 20
1.50639
 30
0.0
  0
VERTEX
  8
0
  5
97D
 10
-1.62712
 20
1.64589
 30
0.0
  0
VERTEX
  8
0
  5
97E
 10
-1.64881
 20
1.76877
 30
0.0
  0
VERTEX
  8
0
  5
97F
 10
-1.6789
 20
1.87037
 30
0.0
  0
VERTEX
  8
0
  5
980
 10
-1.72227
 20
1.94597
 30
0.0
  0
VERTEX
  8
0
  5
981
 10
-1.78381
 20
1.99092
 30
0.0
  0
VERTEX
  8
0
  5
982
 10
-1.78973
 20
1.99322
 30
0.0
  0
VERTEX
  8
0
  5
983
 10
-1.80651
 20
1.99973
 30
0.0
  0
VERTEX
  8
0
  5
984
 10
-1.83257
 20
2.00984
 30
0.0
  0
VERTEX
  8
0
  5
985
 10
-1.86639
 20
2.02297
 30
0.0
  0
VERTEX
  8
0
  5
986
 10
-1.90639
 20
2.03849
 30
0.0
  0
VERTEX
  8
0
  5
987
 10
-1.95105
 20
2.05582
 30
0.0
  0
VERTEX
  8
0
  5
988
 10
-1.9988
 20
2.07435
 30
0.0
  0
VERTEX
  8
0
  5
989
 10
-2.04811
 20
2.09348
 30
0.0
  0
VERTEX
  8
0
  5
98A
 10
-2.09739
 20
2.1126
 30
0.0
  0
VERTEX
  8
0
  5
98B
 10
-2.14514
 20
2.13113
 30
0.0
  0
VERTEX
  8
0
  5
98C
 10
-2.18979
 20
2.14846
 30
0.0
  0
VERTEX
  8
0
  5
98D
 10
-2.22981
 20
2.16399
 30
0.0
  0
VERTEX
  8
0
  5
98E
 10
-2.26361
 20
2.17709
 30
0.0
  0
VERTEX
  8
0
  5
98F
 10
-2.28969
 20
2.18722
 30
0.0
  0
VERTEX
  8
0
  5
990
 10
-2.30647
 20
2.19373
 30
0.0
  0
VERTEX
  8
0
  5
991
 10
-2.31241
 20
2.19605
 30
0.0
  0
VERTEX
  8
0
  5
992
 10
-2.14013
 20
2.31801
 30
0.0
  0
VERTEX
  8
0
  5
993
 10
-1.99011
 20
2.44841
 30
0.0
  0
VERTEX
  8
0
  5
994
 10
-1.86262
 20
2.58639
 30
0.0
  0
VERTEX
  8
0
  5
995
 10
-1.75795
 20
2.73119
 30
0.0
  0
VERTEX
  8
0
  5
996
 10
-1.67634
 20
2.88195
 30
0.0
  0
VERTEX
  8
0
  5
997
 10
-1.61811
 20
3.03791
 30
0.0
  0
VERTEX
  8
0
  5
998
 10
-1.58351
 20
3.19824
 30
0.0
  0
VERTEX
  8
0
  5
999
 10
-1.57285
 20
3.36214
 30
0.0
  0
VERTEX
  8
0
  5
99A
 10
-1.58636
 20
3.52878
 30
0.0
  0
VERTEX
  8
0
  5
99B
 10
-1.62436
 20
3.69738
 30
0.0
  0
VERTEX
  8
0
  5
99C
 10
-1.6871
 20
3.86711
 30
0.0
  0
VERTEX
  8
0
  5
99D
 10
-1.7749
 20
4.03719
 30
0.0
  0
VERTEX
  8
0
  5
99E
 10
-1.88799
 20
4.20677
 30
0.0
  0
VERTEX
  8
0
  5
99F
 10
-2.02667
 20
4.37509
 30
0.0
  0
VERTEX
  8
0
  5
9A0
 10
-2.19121
 20
4.54131
 30
0.0
  0
VERTEX
  8
0
  5
9A1
 10
-2.38192
 20
4.70465
 30
0.0
  0
VERTEX
  8
0
  5
9A2
 10
-2.37436
 20
4.70702
 30
0.0
  0
VERTEX
  8
0
  5
9A3
 10
-2.35303
 20
4.71375
 30
0.0
  0
VERTEX
  8
0
  5
9A4
 10
-2.31987
 20
4.72419
 30
0.0
  0
VERTEX
  8
0
  5
9A5
 10
-2.27688
 20
4.73776
 30
0.0
  0
VERTEX
  8
0
  5
9A6
 10
-2.22599
 20
4.7538
 30
0.0
  0
VERTEX
  8
0
  5
9A7
 10
-2.16921
 20
4.77171
 30
0.0
  0
VERTEX
  8
0
  5
9A8
 10
-2.10849
 20
4.79086
 30
0.0
  0
VERTEX
  8
0
  5
9A9
 10
-2.04581
 20
4.81064
 30
0.0
  0
VERTEX
  8
0
  5
9AA
 10
-1.9831
 20
4.8304
 30
0.0
  0
VERTEX
  8
0
  5
9AB
 10
-1.92238
 20
4.84956
 30
0.0
  0
VERTEX
  8
0
  5
9AC
 10
-1.8656
 20
4.86746
 30
0.0
  0
VERTEX
  8
0
  5
9AD
 10
-1.81473
 20
4.88351
 30
0.0
  0
VERTEX
  8
0
  5
9AE
 10
-1.77173
 20
4.89706
 30
0.0
  0
VERTEX
  8
0
  5
9AF
 10
-1.73858
 20
4.90752
 30
0.0
  0
VERTEX
  8
0
  5
9B0
 10
-1.71725
 20
4.91425
 30
0.0
  0
VERTEX
  8
0
  5
9B1
 10
-1.70971
 20
4.91664
 30
0.0
  0
VERTEX
  8
0
  5
9B2
 10
-1.83223
 20
5.05955
 30
0.0
  0
VERTEX
  8
0
  5
9B3
 10
-1.93844
 20
5.20994
 30
0.0
  0
VERTEX
  8
0
  5
9B4
 10
-2.0282
 20
5.36669
 30
0.0
  0
VERTEX
  8
0
  5
9B5
 10
-2.10141
 20
5.52872
 30
0.0
  0
VERTEX
  8
0
  5
9B6
 10
-2.15791
 20
5.69488
 30
0.0
  0
VERTEX
  8
0
  5
9B7
 10
-2.19764
 20
5.86409
 30
0.0
  0
VERTEX
  8
0
  5
9B8
 10
-2.22042
 20
6.03523
 30
0.0
  0
VERTEX
  8
0
  5
9B9
 10
-2.22618
 20
6.2072
 30
0.0
  0
VERTEX
  8
0
  5
9BA
 10
-2.21474
 20
6.37886
 30
0.0
  0
VERTEX
  8
0
  5
9BB
 10
-2.18604
 20
6.54915
 30
0.0
  0
VERTEX
  8
0
  5
9BC
 10
-2.13992
 20
6.71692
 30
0.0
  0
VERTEX
  8
0
  5
9BD
 10
-2.0763
 20
6.88109
 30
0.0
  0
VERTEX
  8
0
  5
9BE
 10
-1.99501
 20
7.04052
 30
0.0
  0
VERTEX
  8
0
  5
9BF
 10
-1.89596
 20
7.19414
 30
0.0
  0
VERTEX
  8
0
  5
9C0
 10
-1.77901
 20
7.34081
 30
0.0
  0
VERTEX
  8
0
  5
9C1
 10
-1.64408
 20
7.47944
 30
0.0
  0
VERTEX
  8
0
  5
9C2
 10
-1.63613
 20
7.48725
 30
0.0
  0
VERTEX
  8
0
  5
9C3
 10
-1.62888
 20
7.49527
 30
0.0
  0
VERTEX
  8
0
  5
9C4
 10
-1.62237
 20
7.50344
 30
0.0
  0
VERTEX
  8
0
  5
9C5
 10
-1.61666
 20
7.51174
 30
0.0
  0
VERTEX
  8
0
  5
9C6
 10
-1.61178
 20
7.52007
 30
0.0
  0
VERTEX
  8
0
  5
9C7
 10
-1.60781
 20
7.5284
 30
0.0
  0
VERTEX
  8
0
  5
9C8
 10
-1.60479
 20
7.53669
 30
0.0
  0
VERTEX
  8
0
  5
9C9
 10
-1.60279
 20
7.54488
 30
0.0
  0
VERTEX
  8
0
  5
9CA
 10
-1.60182
 20
7.55289
 30
0.0
  0
VERTEX
  8
0
  5
9CB
 10
-1.60198
 20
7.56071
 30
0.0
  0
VERTEX
  8
0
  5
9CC
 10
-1.60329
 20
7.56826
 30
0.0
  0
VERTEX
  8
0
  5
9CD
 10
-1.60583
 20
7.57552
 30
0.0
  0
VERTEX
  8
0
  5
9CE
 10
-1.60962
 20
7.5824
 30
0.0
  0
VERTEX
  8
0
  5
9CF
 10
-1.61474
 20
7.58888
 30
0.0
  0
VERTEX
  8
0
  5
9D0
 10
-1.62123
 20
7.59489
 30
0.0
  0
VERTEX
  8
0
  5
9D1
 10
-1.62916
 20
7.60039
 30
0.0
  0
VERTEX
  8
0
  5
9D2
 10
-1.64576
 20
7.60329
 30
0.0
  0
VERTEX
  8
0
  5
9D3
 10
-1.67293
 20
7.60008
 30
0.0
  0
VERTEX
  8
0
  5
9D4
 10
-1.7089
 20
7.59233
 30
0.0
  0
VERTEX
  8
0
  5
9D5
 10
-1.75196
 20
7.58162
 30
0.0
  0
VERTEX
  8
0
  5
9D6
 10
-1.80031
 20
7.56949
 30
0.0
  0
VERTEX
  8
0
  5
9D7
 10
-1.85227
 20
7.55754
 30
0.0
  0
VERTEX
  8
0
  5
9D8
 10
-1.90605
 20
7.54732
 30
0.0
  0
VERTEX
  8
0
  5
9D9
 10
-1.95993
 20
7.54041
 30
0.0
  0
VERTEX
  8
0
  5
9DA
 10
-2.01213
 20
7.53836
 30
0.0
  0
VERTEX
  8
0
  5
9DB
 10
-2.06095
 20
7.54277
 30
0.0
  0
VERTEX
  8
0
  5
9DC
 10
-2.10463
 20
7.55518
 30
0.0
  0
VERTEX
  8
0
  5
9DD
 10
-2.14142
 20
7.57719
 30
0.0
  0
VERTEX
  8
0
  5
9DE
 10
-2.16957
 20
7.61034
 30
0.0
  0
VERTEX
  8
0
  5
9DF
 10
-2.18736
 20
7.65623
 30
0.0
  0
VERTEX
  8
0
  5
9E0
 10
-2.19301
 20
7.71641
 30
0.0
  0
VERTEX
  8
0
  5
9E1
 10
-2.18483
 20
7.79246
 30
0.0
  0
VERTEX
  8
0
  5
9E2
 10
-2.16201
 20
7.87539
 30
0.0
  0
VERTEX
  8
0
  5
9E3
 10
-2.12804
 20
7.94401
 30
0.0
  0
VERTEX
  8
0
  5
9E4
 10
-2.08395
 20
7.9999
 30
0.0
  0
VERTEX
  8
0
  5
9E5
 10
-2.03083
 20
8.04467
 30
0.0
  0
VERTEX
  8
0
  5
9E6
 10
-1.96971
 20
8.07989
 30
0.0
  0
VERTEX
  8
0
  5
9E7
 10
-1.90168
 20
8.10718
 30
0.0
  0
VERTEX
  8
0
  5
9E8
 10
-1.82779
 20
8.12812
 30
0.0
  0
VERTEX
  8
0
  5
9E9
 10
-1.74911
 20
8.14432
 30
0.0
  0
VERTEX
  8
0
  5
9EA
 10
-1.66667
 20
8.15736
 30
0.0
  0
VERTEX
  8
0
  5
9EB
 10
-1.58158
 20
8.16885
 30
0.0
  0
VERTEX
  8
0
  5
9EC
 10
-1.49487
 20
8.18038
 30
0.0
  0
VERTEX
  8
0
  5
9ED
 10
-1.40763
 20
8.19356
 30
0.0
  0
VERTEX
  8
0
  5
9EE
 10
-1.32089
 20
8.20996
 30
0.0
  0
VERTEX
  8
0
  5
9EF
 10
-1.23574
 20
8.23121
 30
0.0
  0
VERTEX
  8
0
  5
9F0
 10
-1.15322
 20
8.25887
 30
0.0
  0
VERTEX
  8
0
  5
9F1
 10
-1.07443
 20
8.29458
 30
0.0
  0
VERTEX
  8
0
  5
9F2
 10
-0.9997
 20
8.3428
 30
0.0
  0
VERTEX
  8
0
  5
9F3
 10
-0.93494
 20
8.40244
 30
0.0
  0
VERTEX
  8
0
  5
9F4
 10
-0.87954
 20
8.47182
 30
0.0
  0
VERTEX
  8
0
  5
9F5
 10
-0.83296
 20
8.54927
 30
0.0
  0
VERTEX
  8
0
  5
9F6
 10
-0.79459
 20
8.63309
 30
0.0
  0
VERTEX
  8
0
  5
9F7
 10
-0.76389
 20
8.72163
 30
0.0
  0
VERTEX
  8
0
  5
9F8
 10
-0.74026
 20
8.8132
 30
0.0
  0
VERTEX
  8
0
  5
9F9
 10
-0.72314
 20
8.90614
 30
0.0
  0
VERTEX
  8
0
  5
9FA
 10
-0.71193
 20
8.99873
 30
0.0
  0
VERTEX
  8
0
  5
9FB
 10
-0.70608
 20
9.08935
 30
0.0
  0
VERTEX
  8
0
  5
9FC
 10
-0.705
 20
9.17628
 30
0.0
  0
VERTEX
  8
0
  5
9FD
 10
-0.70814
 20
9.25788
 30
0.0
  0
VERTEX
  8
0
  5
9FE
 10
-0.71489
 20
9.33243
 30
0.0
  0
VERTEX
  8
0
  5
9FF
 10
-0.72469
 20
9.3983
 30
0.0
  0
VERTEX
  8
0
  5
A00
 10
-0.73697
 20
9.45379
 30
0.0
  0
VERTEX
  8
0
  5
A01
 10
-0.75116
 20
9.49723
 30
0.0
  0
VERTEX
  8
0
  5
A02
 10
-0.75925
 20
9.49721
 30
0.0
  0
VERTEX
  8
0
  5
A03
 10
-0.78216
 20
9.4972
 30
0.0
  0
VERTEX
  8
0
  5
A04
 10
-0.81776
 20
9.49717
 30
0.0
  0
VERTEX
  8
0
  5
A05
 10
-0.86394
 20
9.49716
 30
0.0
  0
VERTEX
  8
0
  5
A06
 10
-0.91857
 20
9.49713
 30
0.0
  0
VERTEX
  8
0
  5
A07
 10
-0.97956
 20
9.4971
 30
0.0
  0
VERTEX
  8
0
  5
A08
 10
-1.04477
 20
9.49707
 30
0.0
  0
VERTEX
  8
0
  5
A09
 10
-1.1121
 20
9.49704
 30
0.0
  0
VERTEX
  8
0
  5
A0A
 10
-1.17942
 20
9.49699
 30
0.0
  0
VERTEX
  8
0
  5
A0B
 10
-1.24464
 20
9.49696
 30
0.0
  0
VERTEX
  8
0
  5
A0C
 10
-1.30562
 20
9.49693
 30
0.0
  0
VERTEX
  8
0
  5
A0D
 10
-1.36026
 20
9.49691
 30
0.0
  0
VERTEX
  8
0
  5
A0E
 10
-1.40643
 20
9.49688
 30
0.0
  0
VERTEX
  8
0
  5
A0F
 10
-1.44204
 20
9.49687
 30
0.0
  0
VERTEX
  8
0
  5
A10
 10
-1.46495
 20
9.49686
 30
0.0
  0
VERTEX
  8
0
  5
A11
 10
-1.47306
 20
9.49686
 30
0.0
  0
VERTEX
  8
0
  5
A12
 10
-1.57748
 20
9.51123
 30
0.0
  0
VERTEX
  8
0
  5
A13
 10
-1.67105
 20
9.55199
 30
0.0
  0
VERTEX
  8
0
  5
A14
 10
-1.7531
 20
9.61538
 30
0.0
  0
VERTEX
  8
0
  5
A15
 10
-1.82302
 20
9.69767
 30
0.0
  0
VERTEX
  8
0
  5
A16
 10
-1.88015
 20
9.79509
 30
0.0
  0
VERTEX
  8
0
  5
A17
 10
-1.92387
 20
9.90391
 30
0.0
  0
VERTEX
  8
0
  5
A18
 10
-1.95352
 20
10.02038
 30
0.0
  0
VERTEX
  8
0
  5
A19
 10
-1.96851
 20
10.14077
 30
0.0
  0
VERTEX
  8
0
  5
A1A
 10
-1.96815
 20
10.2613
 30
0.0
  0
VERTEX
  8
0
  5
A1B
 10
-1.95184
 20
10.37825
 30
0.0
  0
VERTEX
  8
0
  5
A1C
 10
-1.91893
 20
10.48786
 30
0.0
  0
VERTEX
  8
0
  5
A1D
 10
-1.8688
 20
10.58641
 30
0.0
  0
VERTEX
  8
0
  5
A1E
 10
-1.80077
 20
10.67012
 30
0.0
  0
VERTEX
  8
0
  5
A1F
 10
-1.71426
 20
10.73527
 30
0.0
  0
VERTEX
  8
0
  5
A20
 10
-1.60859
 20
10.7781
 30
0.0
  0
VERTEX
  8
0
  5
A21
 10
-1.48316
 20
10.79489
 30
0.0
  0
VERTEX
  8
0
  5
A22
 10
-1.47512
 20
10.79503
 30
0.0
  0
VERTEX
  8
0
  5
A23
 10
-1.45245
 20
10.79545
 30
0.0
  0
VERTEX
  8
0
  5
A24
 10
-1.41722
 20
10.79609
 30
0.0
  0
VERTEX
  8
0
  5
A25
 10
-1.37154
 20
10.79694
 30
0.0
  0
VERTEX
  8
0
  5
A26
 10
-1.31747
 20
10.79792
 30
0.0
  0
VERTEX
  8
0
  5
A27
 10
-1.25713
 20
10.79904
 30
0.0
  0
VERTEX
  8
0
  5
A28
 10
-1.19261
 20
10.80022
 30
0.0
  0
VERTEX
  8
0
  5
A29
 10
-1.126
 20
10.80146
 30
0.0
  0
VERTEX
  8
0
  5
A2A
 10
-1.05936
 20
10.80268
 30
0.0
  0
VERTEX
  8
0
  5
A2B
 10
-0.99484
 20
10.80386
 30
0.0
  0
VERTEX
  8
0
  5
A2C
 10
-0.9345
 20
10.80496
 30
0.0
  0
VERTEX
  8
0
  5
A2D
 10
-0.88045
 20
10.80597
 30
0.0
  0
VERTEX
  8
0
  5
A2E
 10
-0.83476
 20
10.80681
 30
0.0
  0
VERTEX
  8
0
  5
A2F
 10
-0.79954
 20
10.80746
 30
0.0
  0
VERTEX
  8
0
  5
A30
 10
-0.77687
 20
10.80788
 30
0.0
  0
VERTEX
  8
0
  5
A31
 10
-0.76885
 20
10.80804
 30
0.0
  0
VERTEX
  8
0
  5
A32
 10
-0.76882
 20
10.81718
 30
0.0
  0
VERTEX
  8
0
  5
A33
 10
-0.76876
 20
10.84304
 30
0.0
  0
VERTEX
  8
0
  5
A34
 10
-0.76866
 20
10.88322
 30
0.0
  0
VERTEX
  8
0
  5
A35
 10
-0.76856
 20
10.93535
 30
0.0
  0
VERTEX
  8
0
  5
A36
 10
-0.76841
 20
10.99701
 30
0.0
  0
VERTEX
  8
0
  5
A37
 10
-0.76826
 20
11.06584
 30
0.0
  0
VERTEX
  8
0
  5
A38
 10
-0.76808
 20
11.13944
 30
0.0
  0
VERTEX
  8
0
  5
A39
 10
-0.76793
 20
11.21545
 30
0.0
  0
VERTEX
  8
0
  5
A3A
 10
-0.76775
 20
11.29143
 30
0.0
  0
VERTEX
  8
0
  5
A3B
 10
-0.76758
 20
11.36503
 30
0.0
  0
VERTEX
  8
0
  5
A3C
 10
-0.76743
 20
11.43386
 30
0.0
  0
VERTEX
  8
0
  5
A3D
 10
-0.7673
 20
11.49554
 30
0.0
  0
VERTEX
  8
0
  5
A3E
 10
-0.76718
 20
11.54766
 30
0.0
  0
VERTEX
  8
0
  5
A3F
 10
-0.7671
 20
11.58785
 30
0.0
  0
VERTEX
  8
0
  5
A40
 10
-0.76704
 20
11.61371
 30
0.0
  0
VERTEX
  8
0
  5
A41
 10
-0.76703
 20
11.62287
 30
0.0
  0
VERTEX
  8
0
  5
A42
 10
-0.76566
 20
11.69238
 30
0.0
  0
VERTEX
  8
0
  5
A43
 10
-0.76162
 20
11.76065
 30
0.0
  0
VERTEX
  8
0
  5
A44
 10
-0.75449
 20
11.82722
 30
0.0
  0
VERTEX
  8
0
  5
A45
 10
-0.74389
 20
11.89169
 30
0.0
  0
VERTEX
  8
0
  5
A46
 10
-0.72936
 20
11.95359
 30
0.0
  0
VERTEX
  8
0
  5
A47
 10
-0.71054
 20
12.01251
 30
0.0
  0
VERTEX
  8
0
  5
A48
 10
-0.68699
 20
12.06801
 30
0.0
  0
VERTEX
  8
0
  5
A49
 10
-0.65832
 20
12.11969
 30
0.0
  0
VERTEX
  8
0
  5
A4A
 10
-0.62408
 20
12.16706
 30
0.0
  0
VERTEX
  8
0
  5
A4B
 10
-0.58392
 20
12.20974
 30
0.0
  0
VERTEX
  8
0
  5
A4C
 10
-0.5374
 20
12.24728
 30
0.0
  0
VERTEX
  8
0
  5
A4D
 10
-0.48412
 20
12.27925
 30
0.0
  0
VERTEX
  8
0
  5
A4E
 10
-0.42365
 20
12.30519
 30
0.0
  0
VERTEX
  8
0
  5
A4F
 10
-0.35561
 20
12.32473
 30
0.0
  0
VERTEX
  8
0
  5
A50
 10
-0.27958
 20
12.33739
 30
0.0
  0
VERTEX
  8
0
  5
A51
 10
-0.19515
 20
12.34276
 30
0.0
  0
VERTEX
  8
0
  5
A52
 10
-0.11078
 20
12.34014
 30
0.0
  0
VERTEX
  8
0
  5
A53
 10
-0.03497
 20
12.32952
 30
0.0
  0
VERTEX
  8
0
  5
A54
 10
0.03273
 20
12.31139
 30
0.0
  0
VERTEX
  8
0
  5
A55
 10
0.09277
 20
12.28628
 30
0.0
  0
VERTEX
  8
0
  5
A56
 10
0.14554
 20
12.25465
 30
0.0
  0
VERTEX
  8
0
  5
A57
 10
0.19149
 20
12.21705
 30
0.0
  0
VERTEX
  8
0
  5
A58
 10
0.23105
 20
12.17396
 30
0.0
  0
VERTEX
  8
0
  5
A59
 10
0.26465
 20
12.12591
 30
0.0
  0
VERTEX
  8
0
  5
A5A
 10
0.29269
 20
12.07337
 30
0.0
  0
VERTEX
  8
0
  5
A5B
 10
0.31564
 20
12.01687
 30
0.0
  0
VERTEX
  8
0
  5
A5C
 10
0.3339
 20
11.9569
 30
0.0
  0
VERTEX
  8
0
  5
A5D
 10
0.34792
 20
11.89399
 30
0.0
  0
VERTEX
  8
0
  5
A5E
 10
0.3581
 20
11.82861
 30
0.0
  0
VERTEX
  8
0
  5
A5F
 10
0.3649
 20
11.7613
 30
0.0
  0
VERTEX
  8
0
  5
A60
 10
0.36871
 20
11.69254
 30
0.0
  0
VERTEX
  8
0
  5
A61
 10
0.37001
 20
11.62287
 30
0.0
  0
VERTEX
  8
0
  5
A62
 10
0.37002
 20
11.61371
 30
0.0
  0
VERTEX
  8
0
  5
A63
 10
0.37008
 20
11.58785
 30
0.0
  0
VERTEX
  8
0
  5
A64
 10
0.37016
 20
11.54766
 30
0.0
  0
VERTEX
  8
0
  5
A65
 10
0.37028
 20
11.49554
 30
0.0
  0
VERTEX
  8
0
  5
A66
 10
0.37041
 20
11.43386
 30
0.0
  0
VERTEX
  8
0
  5
A67
 10
0.37056
 20
11.36503
 30
0.0
  0
VERTEX
  8
0
  5
A68
 10
0.37073
 20
11.29143
 30
0.0
  0
VERTEX
  8
0
  5
A69
 10
0.37091
 20
11.21545
 30
0.0
  0
VERTEX
  8
0
  5
A6A
 10
0.37106
 20
11.13944
 30
0.0
  0
VERTEX
  8
0
  5
A6B
 10
0.37123
 20
11.06584
 30
0.0
  0
VERTEX
  8
0
  5
A6C
 10
0.37138
 20
10.99701
 30
0.0
  0
VERTEX
  8
0
  5
A6D
 10
0.37153
 20
10.93535
 30
0.0
  0
VERTEX
  8
0
  5
A6E
 10
0.37163
 20
10.88322
 30
0.0
  0
VERTEX
  8
0
  5
A6F
 10
0.37173
 20
10.84304
 30
0.0
  0
VERTEX
  8
0
  5
A70
 10
0.37179
 20
10.81718
 30
0.0
  0
VERTEX
  8
0
  5
A71
 10
0.37182
 20
10.80804
 30
0.0
  0
VERTEX
  8
0
  5
A72
 10
0.37984
 20
10.80788
 30
0.0
  0
VERTEX
  8
0
  5
A73
 10
0.40251
 20
10.80746
 30
0.0
  0
VERTEX
  8
0
  5
A74
 10
0.43773
 20
10.80681
 30
0.0
  0
VERTEX
  8
0
  5
A75
 10
0.48343
 20
10.80597
 30
0.0
  0
VERTEX
  8
0
  5
A76
 10
0.53748
 20
10.80496
 30
0.0
  0
VERTEX
  8
0
  5
A77
 10
0.59782
 20
10.80386
 30
0.0
  0
VERTEX
  8
0
  5
A78
 10
0.66234
 20
10.80268
 30
0.0
  0
VERTEX
  8
0
  5
A79
 10
0.72898
 20
10.80146
 30
0.0
  0
VERTEX
  8
0
  5
A7A
 10
0.79559
 20
10.80022
 30
0.0
  0
VERTEX
  8
0
  5
A7B
 10
0.86011
 20
10.79904
 30
0.0
  0
VERTEX
  8
0
  5
A7C
 10
0.92045
 20
10.79792
 30
0.0
  0
VERTEX
  8
0
  5
A7D
 10
0.97452
 20
10.79694
 30
0.0
  0
VERTEX
  8
0
  5
A7E
 10
1.0202
 20
10.79609
 30
0.0
  0
VERTEX
  8
0
  5
A7F
 10
1.05543
 20
10.79545
 30
0.0
  0
VERTEX
  8
0
  5
A80
 10
1.0781
 20
10.79503
 30
0.0
  0
VERTEX
  8
0
  5
A81
 10
1.08614
 20
10.79489
 30
0.0
  0
VERTEX
  8
0
  5
A82
 10
1.21157
 20
10.7781
 30
0.0
  0
VERTEX
  8
0
  5
A83
 10
1.31724
 20
10.73527
 30
0.0
  0
VERTEX
  8
0
  5
A84
 10
1.40375
 20
10.67012
 30
0.0
  0
VERTEX
  8
0
  5
A85
 10
1.47178
 20
10.58641
 30
0.0
  0
VERTEX
  8
0
  5
A86
 10
1.52191
 20
10.48786
 30
0.0
  0
VERTEX
  8
0
  5
A87
 10
1.55482
 20
10.37825
 30
0.0
  0
VERTEX
  8
0
  5
A88
 10
1.57113
 20
10.2613
 30
0.0
  0
VERTEX
  8
0
  5
A89
 10
1.57149
 20
10.14077
 30
0.0
  0
VERTEX
  8
0
  5
A8A
 10
1.5565
 20
10.02038
 30
0.0
  0
VERTEX
  8
0
  5
A8B
 10
1.52685
 20
9.90391
 30
0.0
  0
VERTEX
  8
0
  5
A8C
 10
1.48313
 20
9.79509
 30
0.0
  0
VERTEX
  8
0
  5
A8D
 10
1.426
 20
9.69767
 30
0.0
  0
VERTEX
  8
0
  5
A8E
 10
1.35608
 20
9.61538
 30
0.0
  0
VERTEX
  8
0
  5
A8F
 10
1.27402
 20
9.55199
 30
0.0
  0
VERTEX
  8
0
  5
A90
 10
1.18045
 20
9.51123
 30
0.0
  0
VERTEX
  8
0
  5
A91
 10
1.07603
 20
9.49686
 30
0.0
  0
VERTEX
  8
0
  5
A92
 10
1.06792
 20
9.49686
 30
0.0
  0
VERTEX
  8
0
  5
A93
 10
1.04501
 20
9.49687
 30
0.0
  0
VERTEX
  8
0
  5
A94
 10
1.0094
 20
9.49688
 30
0.0
  0
VERTEX
  8
0
  5
A95
 10
0.96323
 20
9.49691
 30
0.0
  0
VERTEX
  8
0
  5
A96
 10
0.90859
 20
9.49693
 30
0.0
  0
VERTEX
  8
0
  5
A97
 10
0.84761
 20
9.49696
 30
0.0
  0
VERTEX
  8
0
  5
A98
 10
0.78239
 20
9.49699
 30
0.0
  0
VERTEX
  8
0
  5
A99
 10
0.71508
 20
9.49704
 30
0.0
  0
VERTEX
  8
0
  5
A9A
 10
0.64775
 20
9.49707
 30
0.0
  0
VERTEX
  8
0
  5
A9B
 10
0.58254
 20
9.4971
 30
0.0
  0
VERTEX
  8
0
  5
A9C
 10
0.52155
 20
9.49713
 30
0.0
  0
VERTEX
  8
0
  5
A9D
 10
0.46692
 20
9.49716
 30
0.0
  0
VERTEX
  8
0
  5
A9E
 10
0.42074
 20
9.49717
 30
0.0
  0
VERTEX
  8
0
  5
A9F
 10
0.38514
 20
9.4972
 30
0.0
  0
VERTEX
  8
0
  5
AA0
 10
0.36223
 20
9.49721
 30
0.0
  0
VERTEX
  8
0
  5
AA1
 10
0.35414
 20
9.49723
 30
0.0
  0
VERTEX
  8
0
  5
AA2
 10
0.33995
 20
9.45379
 30
0.0
  0
VERTEX
  8
0
  5
AA3
 10
0.32767
 20
9.3983
 30
0.0
  0
VERTEX
  8
0
  5
AA4
 10
0.31787
 20
9.33243
 30
0.0
  0
VERTEX
  8
0
  5
AA5
 10
0.31112
 20
9.25788
 30
0.0
  0
VERTEX
  8
0
  5
AA6
 10
0.30798
 20
9.17628
 30
0.0
  0
VERTEX
  8
0
  5
AA7
 10
0.30906
 20
9.08935
 30
0.0
  0
VERTEX
  8
0
  5
AA8
 10
0.31491
 20
8.99873
 30
0.0
  0
VERTEX
  8
0
  5
AA9
 10
0.32612
 20
8.90614
 30
0.0
  0
VERTEX
  8
0
  5
AAA
 10
0.34324
 20
8.8132
 30
0.0
  0
VERTEX
  8
0
  5
AAB
 10
0.36687
 20
8.72163
 30
0.0
  0
VERTEX
  8
0
  5
AAC
 10
0.39757
 20
8.63309
 30
0.0
  0
VERTEX
  8
0
  5
AAD
 10
0.43594
 20
8.54927
 30
0.0
  0
VERTEX
  8
0
  5
AAE
 10
0.48251
 20
8.47182
 30
0.0
  0
VERTEX
  8
0
  5
AAF
 10
0.53791
 20
8.40244
 30
0.0
  0
VERTEX
  8
0
  5
AB0
 10
0.60268
 20
8.3428
 30
0.0
  0
VERTEX
  8
0
  5
AB1
 10
0.67741
 20
8.29458
 30
0.0
  0
VERTEX
  8
0
  5
AB2
 10
0.7562
 20
8.25887
 30
0.0
  0
VERTEX
  8
0
  5
AB3
 10
0.83871
 20
8.23121
 30
0.0
  0
VERTEX
  8
0
  5
AB4
 10
0.92386
 20
8.20996
 30
0.0
  0
VERTEX
  8
0
  5
AB5
 10
1.0106
 20
8.19356
 30
0.0
  0
VERTEX
  8
0
  5
AB6
 10
1.09784
 20
8.18038
 30
0.0
  0
VERTEX
  8
0
  5
AB7
 10
1.18455
 20
8.16885
 30
0.0
  0
VERTEX
  8
0
  5
AB8
 10
1.26964
 20
8.15736
 30
0.0
  0
VERTEX
  8
0
  5
AB9
 10
1.35208
 20
8.14432
 30
0.0
  0
VERTEX
  8
0
  5
ABA
 10
1.43076
 20
8.12812
 30
0.0
  0
VERTEX
  8
0
  5
ABB
 10
1.50465
 20
8.10718
 30
0.0
  0
VERTEX
  8
0
  5
ABC
 10
1.57268
 20
8.07989
 30
0.0
  0
VERTEX
  8
0
  5
ABD
 10
1.63381
 20
8.04467
 30
0.0
  0
VERTEX
  8
0
  5
ABE
 10
1.68693
 20
7.9999
 30
0.0
  0
VERTEX
  8
0
  5
ABF
 10
1.73102
 20
7.94401
 30
0.0
  0
VERTEX
  8
0
  5
AC0
 10
1.76499
 20
7.87539
 30
0.0
  0
VERTEX
  8
0
  5
AC1
 10
1.78781
 20
7.79246
 30
0.0
  0
VERTEX
  8
0
  5
AC2
 10
1.79599
 20
7.71641
 30
0.0
  0
VERTEX
  8
0
  5
AC3
 10
1.79034
 20
7.65623
 30
0.0
  0
VERTEX
  8
0
  5
AC4
 10
1.77255
 20
7.61034
 30
0.0
  0
VERTEX
  8
0
  5
AC5
 10
1.7444
 20
7.57719
 30
0.0
  0
VERTEX
  8
0
  5
AC6
 10
1.70761
 20
7.55518
 30
0.0
  0
VERTEX
  8
0
  5
AC7
 10
1.66393
 20
7.54277
 30
0.0
  0
VERTEX
  8
0
  5
AC8
 10
1.61511
 20
7.53836
 30
0.0
  0
VERTEX
  8
0
  5
AC9
 10
1.56291
 20
7.54041
 30
0.0
  0
VERTEX
  8
0
  5
ACA
 10
1.50903
 20
7.54732
 30
0.0
  0
VERTEX
  8
0
  5
ACB
 10
1.45525
 20
7.55754
 30
0.0
  0
VERTEX
  8
0
  5
ACC
 10
1.40329
 20
7.56949
 30
0.0
  0
VERTEX
  8
0
  5
ACD
 10
1.35494
 20
7.58162
 30
0.0
  0
VERTEX
  8
0
  5
ACE
 10
1.31188
 20
7.59233
 30
0.0
  0
VERTEX
  8
0
  5
ACF
 10
1.27591
 20
7.60008
 30
0.0
  0
VERTEX
  8
0
  5
AD0
 10
1.24874
 20
7.60329
 30
0.0
  0
VERTEX
  8
0
  5
AD1
 10
1.23214
 20
7.60039
 30
0.0
  0
VERTEX
  8
0
  5
AD2
 10
1.2242
 20
7.59489
 30
0.0
  0
VERTEX
  8
0
  5
AD3
 10
1.21771
 20
7.58888
 30
0.0
  0
VERTEX
  8
0
  5
AD4
 10
1.21259
 20
7.5824
 30
0.0
  0
VERTEX
  8
0
  5
AD5
 10
1.2088
 20
7.57552
 30
0.0
  0
VERTEX
  8
0
  5
AD6
 10
1.20626
 20
7.56826
 30
0.0
  0
VERTEX
  8
0
  5
AD7
 10
1.20495
 20
7.56071
 30
0.0
  0
VERTEX
  8
0
  5
AD8
 10
1.20479
 20
7.55289
 30
0.0
  0
VERTEX
  8
0
  5
AD9
 10
1.20576
 20
7.54488
 30
0.0
  0
VERTEX
  8
0
  5
ADA
 10
1.20776
 20
7.53669
 30
0.0
  0
VERTEX
  8
0
  5
ADB
 10
1.21078
 20
7.5284
 30
0.0
  0
VERTEX
  8
0
  5
ADC
 10
1.21475
 20
7.52007
 30
0.0
  0
VERTEX
  8
0
  5
ADD
 10
1.21963
 20
7.51174
 30
0.0
  0
VERTEX
  8
0
  5
ADE
 10
1.22534
 20
7.50344
 30
0.0
  0
VERTEX
  8
0
  5
ADF
 10
1.23185
 20
7.49527
 30
0.0
  0
VERTEX
  8
0
  5
AE0
 10
1.2391
 20
7.48725
 30
0.0
  0
VERTEX
  8
0
  5
AE1
 10
1.24705
 20
7.47944
 30
0.0
  0
VERTEX
  8
0
  5
AE2
 10
1.38198
 20
7.34081
 30
0.0
  0
VERTEX
  8
0
  5
AE3
 10
1.49893
 20
7.19414
 30
0.0
  0
VERTEX
  8
0
  5
AE4
 10
1.59798
 20
7.04052
 30
0.0
  0
VERTEX
  8
0
  5
AE5
 10
1.67928
 20
6.88109
 30
0.0
  0
VERTEX
  8
0
  5
AE6
 10
1.7429
 20
6.71692
 30
0.0
  0
VERTEX
  8
0
  5
AE7
 10
1.78902
 20
6.54915
 30
0.0
  0
VERTEX
  8
0
  5
AE8
 10
1.81772
 20
6.37886
 30
0.0
  0
VERTEX
  8
0
  5
AE9
 10
1.82916
 20
6.2072
 30
0.0
  0
VERTEX
  8
0
  5
AEA
 10
1.8234
 20
6.03523
 30
0.0
  0
VERTEX
  8
0
  5
AEB
 10
1.80062
 20
5.86409
 30
0.0
  0
VERTEX
  8
0
  5
AEC
 10
1.76089
 20
5.69488
 30
0.0
  0
VERTEX
  8
0
  5
AED
 10
1.70439
 20
5.52872
 30
0.0
  0
VERTEX
  8
0
  5
AEE
 10
1.63118
 20
5.36669
 30
0.0
  0
VERTEX
  8
0
  5
AEF
 10
1.54142
 20
5.20994
 30
0.0
  0
VERTEX
  8
0
  5
AF0
 10
1.43521
 20
5.05955
 30
0.0
  0
VERTEX
  8
0
  5
AF1
 10
1.31269
 20
4.91664
 30
0.0
  0
VERTEX
  8
0
  5
AF2
 10
1.32023
 20
4.91425
 30
0.0
  0
VERTEX
  8
0
  5
AF3
 10
1.34156
 20
4.90752
 30
0.0
  0
VERTEX
  8
0
  5
AF4
 10
1.37471
 20
4.89706
 30
0.0
  0
VERTEX
  8
0
  5
AF5
 10
1.41771
 20
4.88351
 30
0.0
  0
VERTEX
  8
0
  5
AF6
 10
1.46858
 20
4.86746
 30
0.0
  0
VERTEX
  8
0
  5
AF7
 10
1.52536
 20
4.84956
 30
0.0
  0
VERTEX
  8
0
  5
AF8
 10
1.58608
 20
4.8304
 30
0.0
  0
VERTEX
  8
0
  5
AF9
 10
1.64879
 20
4.81064
 30
0.0
  0
VERTEX
  8
0
  5
AFA
 10
1.71147
 20
4.79086
 30
0.0
  0
VERTEX
  8
0
  5
AFB
 10
1.77219
 20
4.77171
 30
0.0
  0
VERTEX
  8
0
  5
AFC
 10
1.82897
 20
4.7538
 30
0.0
  0
VERTEX
  8
0
  5
AFD
 10
1.87986
 20
4.73776
 30
0.0
  0
VERTEX
  8
0
  5
AFE
 10
1.92285
 20
4.72419
 30
0.0
  0
VERTEX
  8
0
  5
AFF
 10
1.95601
 20
4.71375
 30
0.0
  0
VERTEX
  8
0
  5
B00
 10
1.97734
 20
4.70702
 30
0.0
  0
VERTEX
  8
0
  5
B01
 10
1.9849
 20
4.70465
 30
0.0
  0
VERTEX
  8
0
  5
B02
 10
1.79419
 20
4.54131
 30
0.0
  0
VERTEX
  8
0
  5
B03
 10
1.62965
 20
4.37509
 30
0.0
  0
VERTEX
  8
0
  5
B04
 10
1.49097
 20
4.20677
 30
0.0
  0
VERTEX
  8
0
  5
B05
 10
1.37788
 20
4.03719
 30
0.0
  0
VERTEX
  8
0
  5
B06
 10
1.29008
 20
3.86711
 30
0.0
  0
VERTEX
  8
0
  5
B07
 10
1.22734
 20
3.69738
 30
0.0
  0
VERTEX
  8
0
  5
B08
 10
1.18934
 20
3.52878
 30
0.0
  0
VERTEX
  8
0
  5
B09
 10
1.17582
 20
3.36214
 30
0.0
  0
VERTEX
  8
0
  5
B0A
 10
1.18648
 20
3.19824
 30
0.0
  0
VERTEX
  8
0
  5
B0B
 10
1.22108
 20
3.03791
 30
0.0
  0
VERTEX
  8
0
  5
B0C
 10
1.27931
 20
2.88195
 30
0.0
  0
VERTEX
  8
0
  5
B0D
 10
1.36092
 20
2.73119
 30
0.0
  0
VERTEX
  8
0
  5
B0E
 10
1.46559
 20
2.58639
 30
0.0
  0
VERTEX
  8
0
  5
B0F
 10
1.59308
 20
2.44841
 30
0.0
  0
VERTEX
  8
0
  5
B10
 10
1.7431
 20
2.31801
 30
0.0
  0
VERTEX
  8
0
  5
B11
 10
1.91538
 20
2.19605
 30
0.0
  0
VERTEX
  8
0
  5
B12
 10
1.91009
 20
2.19309
 30
0.0
  0
VERTEX
  8
0
  5
B13
 10
1.89515
 20
2.18473
 30
0.0
  0
VERTEX
  8
0
  5
B14
 10
1.87195
 20
2.17173
 30
0.0
  0
VERTEX
  8
0
  5
B15
 10
1.84186
 20
2.1549
 30
0.0
  0
VERTEX
  8
0
  5
B16
 10
1.80625
 20
2.13497
 30
0.0
  0
VERTEX
  8
0
  5
B17
 10
1.76652
 20
2.11273
 30
0.0
  0
VERTEX
  8
0
  5
B18
 10
1.72403
 20
2.08894
 30
0.0
  0
VERTEX
  8
0
  5
B19
 10
1.68016
 20
2.0644
 30
0.0
  0
VERTEX
  8
0
  5
B1A
 10
1.63626
 20
2.03983
 30
0.0
  0
VERTEX
  8
0
  5
B1B
 10
1.59377
 20
2.01605
 30
0.0
  0
VERTEX
  8
0
  5
B1C
 10
1.55403
 20
1.99381
 30
0.0
  0
VERTEX
  8
0
  5
B1D
 10
1.51844
 20
1.97389
 30
0.0
  0
VERTEX
  8
0
  5
B1E
 10
1.48834
 20
1.95704
 30
0.0
  0
VERTEX
  8
0
  5
B1F
 10
1.46515
 20
1.94406
 30
0.0
  0
VERTEX
  8
0
  5
B20
 10
1.45021
 20
1.9357
 30
0.0
  0
VERTEX
  8
0
  5
B21
 10
1.44494
 20
1.93276
 30
0.0
  0
VERTEX
  8
0
  5
B22
 10
1.38576
 20
1.88061
 30
0.0
  0
VERTEX
  8
0
  5
B23
 10
1.34061
 20
1.80255
 30
0.0
  0
VERTEX
  8
0
  5
B24
 10
1.30514
 20
1.70253
 30
0.0
  0
VERTEX
  8
0
  5
B25
 10
1.27502
 20
1.58457
 30
0.0
  0
VERTEX
  8
0
  5
B26
 10
1.24591
 20
1.4526
 30
0.0
  0
VERTEX
  8
0
  5
B27
 10
1.2135
 20
1.31066
 30
0.0
  0
VERTEX
  8
0
  5
B28
 10
1.17345
 20
1.16269
 30
0.0
  0
VERTEX
  8
0
  5
B29
 10
1.12144
 20
1.01271
 30
0.0
  0
VERTEX
  8
0
  5
B2A
 10
1.05312
 20
0.86466
 30
0.0
  0
VERTEX
  8
0
  5
B2B
 10
0.96418
 20
0.72257
 30
0.0
  0
VERTEX
  8
0
  5
B2C
 10
0.85027
 20
0.5904
 30
0.0
  0
VERTEX
  8
0
  5
B2D
 10
0.7071
 20
0.47214
 30
0.0
  0
VERTEX
  8
0
  5
B2E
 10
0.5303
 20
0.37176
 30
0.0
  0
VERTEX
  8
0
  5
B2F
 10
0.31557
 20
0.29328
 30
0.0
  0
VERTEX
  8
0
  5
B30
 10
0.05857
 20
0.24064
 30
0.0
  0
SEQEND
  8
0
  5
B31
  0
POLYLINE
  8
0
  5
B32
 66
     1
 10
0.0
 20
0.0
 30
0.0
  0
VERTEX
  8
0
  5
B33
 10
-0.18726
 20
1.95819
 30
0.0
  0
VERTEX
  8
0
  5
B34
 10
-0.18726
 20
1.95819
 30
0.0
  0
VERTEX
  8
0
  5
B35
 10
-0.14561
 20
1.95607
 30
0.0
  0
VERTEX
  8
0
  5
B36
 10
-0.10516
 20
1.94986
 30
0.0
  0
VERTEX
  8
0
  5
B37
 10
-0.0661
 20
1.93976
 30
0.0
  0
VERTEX
  8
0
  5
B38
 10
-0.02864
 20
1.92601
 30
0.0
  0
VERTEX
  8
0
  5
B39
 10
0.00702
 20
1.90877
 30
0.0
  0
VERTEX
  8
0
  5
B3A
 10
0.04068
 20
1.88829
 30
0.0
  0
VERTEX
  8
0
  5
B3B
 10
0.07211
 20
1.86475
 30
0.0
  0
VERTEX
  8
0
  5
B3C
 10
0.10113
 20
1.83839
 30
0.0
  0
VERTEX
  8
0
  5
B3D
 10
0.12749
 20
1.80937
 30
0.0
  0
VERTEX
  8
0
  5
B3E
 10
0.15103
 20
1.77793
 30
0.0
  0
VERTEX
  8
0
  5
B3F
 10
0.17151
 20
1.74427
 30
0.0
  0
VERTEX
  8
0
  5
B40
 10
0.18874
 20
1.70861
 30
0.0
  0
VERTEX
  8
0
  5
B41
 10
0.20249
 20
1.67113
 30
0.0
  0
VERTEX
  8
0
  5
B42
 10
0.21259
 20
1.63207
 30
0.0
  0
VERTEX
  8
0
  5
B43
 10
0.2188
 20
1.59162
 30
0.0
  0
VERTEX
  8
0
  5
B44
 10
0.22092
 20
1.55
 30
0.0
  0
VERTEX
  8
0
  5
B45
 10
0.2188
 20
1.50835
 30
0.0
  0
VERTEX
  8
0
  5
B46
 10
0.21259
 20
1.4679
 30
0.0
  0
VERTEX
  8
0
  5
B47
 10
0.20249
 20
1.42882
 30
0.0
  0
VERTEX
  8
0
  5
B48
 10
0.18874
 20
1.39136
 30
0.0
  0
VERTEX
  8
0
  5
B49
 10
0.17151
 20
1.35569
 30
0.0
  0
VERTEX
  8
0
  5
B4A
 10
0.15103
 20
1.32204
 30
0.0
  0
VERTEX
  8
0
  5
B4B
 10
0.12749
 20
1.2906
 30
0.0
  0
VERTEX
  8
0
  5
B4C
 10
0.10113
 20
1.2616
 30
0.0
  0
VERTEX
  8
0
  5
B4D
 10
0.07211
 20
1.23521
 30
0.0
  0
VERTEX
  8
0
  5
B4E
 10
0.04068
 20
1.21168
 30
0.0
  0
VERTEX
  8
0
  5
B4F
 10
0.00702
 20
1.19119
 30
0.0
  0
VERTEX
  8
0
  5
B50
 10
-0.02864
 20
1.17398
 30
0.0
  0
VERTEX
  8
0
  5
B51
 10
-0.0661
 20
1.16021
 30
0.0
  0
VERTEX
  8
0
  5
B52
 10
-0.10516
 20
1.15013
 30
0.0
  0
VERTEX
  8
0
  5
B53
 10
-0.14561
 20
1.14392
 30
0.0
  0
VERTEX
  8
0
  5
B54
 10
-0.18726
 20
1.14182
 30
0.0
  0
VERTEX
  8
0
  5
B55
 10
-0.22888
 20
1.14392
 30
0.0
  0
VERTEX
  8
0
  5
B56
 10
-0.26933
 20
1.15013
 30
0.0
  0
VERTEX
  8
0
  5
B57
 10
-0.30839
 20
1.16021
 30
0.0
  0
VERTEX
  8
0
  5
B58
 10
-0.34587
 20
1.17398
 30
0.0
  0
VERTEX
  8
0
  5
B59
 10
-0.38153
 20
1.19119
 30
0.0
  0
VERTEX
  8
0
  5
B5A
 10
-0.41519
 20
1.21168
 30
0.0
  0
VERTEX
  8
0
  5
B5B
 10
-0.44662
 20
1.23521
 30
0.0
  0
VERTEX
  8
0
  5
B5C
 10
-0.47564
 20
1.2616
 30
0.0
  0
VERTEX
  8
0
  5
B5D
 10
-0.502
 20
1.2906
 30
0.0
  0
VERTEX
  8
0
  5
B5E
 10
-0.52554
 20
1.32204
 30
0.0
  0
VERTEX
  8
0
  5
B5F
 10
-0.54602
 20
1.35569
 30
0.0
  0
VERTEX
  8
0
  5
B60
 10
-0.56326
 20
1.39136
 30
0.0
  0
VERTEX
  8
0
  5
B61
 10
-0.57701
 20
1.42882
 30
0.0
  0
VERTEX
  8
0
  5
B62
 10
-0.58711
 20
1.4679
 30
0.0
  0
VERTEX
  8
0
  5
B63
 10
-0.59332
 20
1.50835
 30
0.0
  0
VERTEX
  8
0
  5
B64
 10
-0.59544
 20
1.55
 30
0.0
  0
VERTEX
  8
0
  5
B65
 10
-0.59332
 20
1.59162
 30
0.0
  0
VERTEX
  8
0
  5
B66
 10
-0.58711
 20
1.63207
 30
0.0
  0
VERTEX
  8
0
  5
B67
 10
-0.57701
 20
1.67113
 30
0.0
  0
VERTEX
  8
0
  5
B68
 10
-0.56326
 20
1.70861
 30
0.0
  0
VERTEX
  8
0
  5
B69
 10
-0.54602
 20
1.74427
 30
0.0
  0
VERTEX
  8
0
  5
B6A
 10
-0.52554
 20
1.77793
 30
0.0
  0
VERTEX
  8
0
  5
B6B
 10
-0.502
 20
1.80937
 30
0.0
  0
VERTEX
  8
0
  5
B6C
 10
-0.47564
 20
1.83839
 30
0.0
  0
VERTEX
  8
0
  5
B6D
 10
-0.44662
 20
1.86475
 30
0.0
  0
VERTEX
  8
0
  5
B6E
 10
-0.41519
 20
1.88829
 30
0.0
  0
VERTEX
  8
0
  5
B6F
 10
-0.38153
 20
1.90877
 30
0.0
  0
VERTEX
  8
0
  5
B70
 10
-0.34587
 20
1.92601
 30
0.0
  0
VERTEX
  8
0
  5
B71
 10
-0.30839
 20
1.93976
 30
0.0
  0
VERTEX
  8
0
  5
B72
 10
-0.26933
 20
1.94986
 30
0.0
  0
VERTEX
  8
0
  5
B73
 10
-0.22888
 20
1.95607
 30
0.0
  0
SEQEND
  8
0
  5
B74
  0
ENDSEC
  0
EOF
